Cifra Club

Aprenda

Tangerina (part. Tiago Iorc)

DUDA BEAT

Cifra: Principal (violão e guitarra)
Tom: Bm (forma dos acordes no tom de Am) Afinação: D G C F A D Capotraste na 4ª casa
[Intro]

E|--------------------------------|
B|----1----5/7/8/7/5------3-------|
G|----0----5/7/8/7/5------0-------|
D|----2---------------------------|
A|--0---0-------------0/3----*----|
E|--------------------------------|

E|--------------------------------|
B|--5/7/8/7/5/8----8--5/7/8/7/5-3-|
G|--5/7/8/7/5/9----9--5/7/8/7/5---|
D|--------------------------------|
A|--------------------------------|
E|---------------0----------------|

E|-------12------0----------------|
B|-------12-----------------------|
G|----12-----2h4--4p2p0-----------|
D|-----------------------2p0------|
A|--10----------------------------|
E|--------------------------------|

E|--------------------------------|
B|----1----5/7/8/7/5------3-------|
G|----0----5/7/8/7/5------0-------|
D|----2---------------------------|
A|--0---0-------------0/3----*----|
E|--------------------------------|

E|--------------------------------|
B|--5/7/8/7/5/8----8--5/7/8/7/5-3-|
G|--5/7/8/7/5/9----9--5/7/8/7/5---|
D|--------------------------------|
A|--------------------------------|
E|---------------0----------------|

E|-------12------0----------------|
B|-------12-----------------------|
G|----12-----2h4--4p2p0-----------|
D|-----------------------2p0-0h2--|
A|--10----------------------------|
E|--------------------------------|

[Primeira Parte]

Am7    C7M          Em7(9)
  Chega  bem devagar
      G5(7M)
Calma, só me beija
Am7   C7M         Em7(9)
  Cala  minha boca
       G5(7M)
Me leva desse lugar

[Refrão]

Am7    C7M
  Minha   sina
Em7(9)  G5(7M)
  Gana suicida
Am7    C7M
  Morte  divina
Em7(9)  G5(7M)
  Doce tangerina

( Am7  C7M  Em7(9)  G5(7M) )
( Am7  C7M  Em7(9)  G5(7M) )

[Segunda Parte]

Am7   C7M           Em7(9)
  Sabe  me provocar
      G5(7M)
Desce, me domina
Am7         C7M        Em7(9)
  Me arranha e me ganha
         G5(7M)
Na manha,  pra me acabar

[Refrão]

Am7    C7M
  Minha   sina
Em7(9)  G5(7M)
  Gana suicida
Am7    C7M
  Morte   divina
Em7(9)  G5(7M)
  Doce tangerina

( Am7  C7M  Em7(9)  G5(7M) )
( Am7  C7M  Em7(9)  G5(7M)  G )
( D7M(9)  A7M  D7M(9)  A7M )

[Ponte]

    D7M(9)
Em câmera lenta acompanho teu suor
                A7M
De encontro ao meu
   D7M(9)
A gota da seiva do céu ninguém faz melhor
              A7M
Do que você e eu
                  Bm7  F#m7
Me agarro na tua nuca
                 F7M
Daqui não largo nunca mais

[Riff]

E|--------------------------------|
B|----1----5/7/8/7/5------3-------|
G|----0----5/7/8/7/5------0-------|
D|----2---------------------------|
A|--0---0-------------0/3----*----|
E|--------------------------------|

E|--------------------------------|
B|--5/7/8/7/5/8----8--5/7/8/7/5-3-|
G|--5/7/8/7/5/9----9--5/7/8/7/5---|
D|--------------------------------|
A|--------------------------------|
E|---------------0----------------|

E|-----12-----0-0----------------|
B|-----12--3h5-5-3---------------|
G|--12-------------4p2-0---------|
D|-----------------------2-0-0h2-|
A|-10----------------------------|
E|-------------------------------|

E|--------------------------------|
B|----1----5/7/8/7/5------3-------|
G|----0----5/7/8/7/5------0-------|
D|----2---------------------------|
A|--0---0-------------0/3----*----|
E|--------------------------------|

E|--------------------------------|
B|--5/7/8/7/5/8----8--5/7/8/7/5-3-|
G|--5/7/8/7/5/9----9--5/7/8/7/5---|
D|--------------------------------|
A|--------------------------------|
E|---------------0----------------|

E|-------12------0----------------|
B|-------12-----------------------|
G|----12-----2h4--4p2p0-----------|
D|-----------------------2p0-0h2--|
A|--10----------------------------|
E|--------------------------------|

[Refrão]

Am7    C7M
  Minha   sina
Em7(9)  G5(7M)
  Gana suicida
Am7    C7M
  Morte  divina
Em7(9)  G5(7M)   Am7  C7M
  Doce tangerina
Em7(9)  G5(7M)   Am7  C7M
  Doce tangerina
Em7(9)  G5(7M)
  Doce tangerina

[Final] Am7  C7M  Em7(9)  G5(7M)
        Am7  C7M  Em7(9)  G5(7M)
        Am7  C7M  Em7(9)  G5(7M)
        Am7  C7M  Em7(9)

E|------0-----------------------|
B|------------------------------|
G|---2/4----2p0-----------------|
D|--------------2p0-------------|
A|------------------------------|
E|------------------------------|
Composição de Thiago Iorczeski / Roberto Schilling Pollo Duarte
Colaboração e revisão:
  • Gustavo Vaz
3.748 exibições
    • ½ Tom
    • Am
    • Bbm
    • Bm
    • Cm
    • C#m
    • Dm
    • Ebm
    • Em
    • Fm
    • F#m
    • Gm
    • G#m
  • Adicionar à lista

    0 comentários

    Mostrar mais comentários

    Conseguiu tocar?

    0 Tocaram 1 Ainda não

    Grave um vídeo tocando Tangerina (part. Tiago Iorc) e mande pra gente!

    00:00 / 00:00
    outros vídeos desta música
    repetir qualidade Automático
    Outros vídeos desta música
    00:00 / 00:00
    Automático

    Cifra Club Pro

    Aproveite o Cifra Club com benefícios exclusivos e sem anúncios
    Cifra Club Pro
    Aproveite o Cifra Club com benefícios exclusivos e sem anúncios
    OK