Cifra Club

Born Again (part. Camila Alves)

Dunamis Music

Cifra: Principal (violão e guitarra)
Selo Cifra Club: esta cifra foi revisada para atender aos critérios oficiais da nossa Equipe de Qualidade.
tom: Gm
[Intro]

E|--------------------------------------------------------|
B|-----3-------3--------3-------3--------3--------3-------|
G|---3---3---3---3----3---3---3---3----0---0----0---0-----|
D|-----------------------------------1--------1-----------|
A|--------------------------------------------------------|
E|3---------3-------1-------1-----------------------------|

[Dedilhado Refrão]

E|--------------------------------------------------------|
B|----3--------3-------3-------3------3-------3-------3---|
G|--0---0----0---0---3---3---3---3--3---3---2---2---2---2-|
D|1--------1----------------------------------------------|
A|-----------------1-------1------------------------------|
E|---------------------------------3------1-------1-------|

Gm                     
Toma as minhas mãos
F               Eb   
Levas me pra te encontrar
Gm
Preciso ouvir o vento e
F                Eb
Te sentir pra me acalmar

Gm
Meu melhor amigo
F                    Eb
Meu descanso está em Ti

Eb                   Bb
No orgulho dos olhos do meu Pai
Gm                   F
Eu me lembro quem eu sou
       Eb              Bb
E no calor do teu sorriso, oh Pai
       Gm            F
Sinto todo o meu ser
              Eb  
Nascer outra vez

Gm 
Realinha o meu
F                Eb
Pensamento com o Teu
Gm
Ouço o Teu sussurro
 F           Eb
E me apego a Tua voz

Gm
Meu melhor amigo
F                    Eb
Meu descanso está em Ti

Eb                   Bb
No orgulho dos olhos do meu Pai
Gm                   F
Eu me lembro quem eu sou
       Eb              Bb
E no calor do teu sorriso, oh Pai
      Gm          F
Sinto todo o meu ser
              Eb  
Nascer outra vez

      Gm
Oh oh oh
      F
Oh oh oh
      Eb
Oh oh oh
              Eb
Nascer outra vez
00:00 / 00:00
Outros vídeos desta música
Repetir
Outros vídeos desta música
1.663 exibições
    • ½ Tom
    • Am
    • Bbm
    • Bm
    • Cm
    • C#m
    • Dm
    • Ebm
    • Em
    • Fm
    • F#m
    • Gm
    • G#m
  • Adicionar à lista

Afinação da cifra

Afinador online

    0 comentários

    Ver todos os comentários

    Conseguiu tocar?

    0 Tocaram 0 Ainda não

    Grave um vídeo tocando Born Again (part. Camila Alves) e nos envie!

    Entre para o Cifra Club PRO

    Tenha acesso a benefícios exclusivos no App e no Site

    • Chega de anúncios

    • Mais recursos no app do Afinador

    • Atendimento Prioritário

    • Aumente seu limite de lista

    • Ajude a produzir mais conteúdo

    00:00 / 00:00

    Cifra Club Pro

    Aproveite o Cifra Club com benefícios exclusivos e sem anúncios
    Cifra Club Pro
    Aproveite o Cifra Club com benefícios exclusivos e sem anúncios
    OK