Cifra Club

Aprenda

Amor Tão Profundo

Embaixadores de Sião

Cifra: Principal (violão e guitarra)
tom: C
Am                                                  E
Sozinho diante o tribuno cercado de homens a o condenar
F               Em                 Am  E
Jesus estava sofrendo sem nada a dizer
  Am                                              E
o rei que foi desprezado e caluniado sem nada a fazer
     F       Em                       Am
ele era inocente e foi tido como mau feitor
Bb                E         Am
Pilatos olhando jesus,não tinha do que o acusar
       F               E
ele então lavou,as suas mãos
    Bb              E
que crime jesus cometeu
       Am                     F         E           Am E
nenhum homem pode dizer,para muitos foi o crime de amar.
 Am                                                     E
Levado para o matadouro nao abriu sua boca de tanto me amar
  F                    Em               Am  E
Jesus que amor tão profundo tivesse por nós
Am                                                 E
erguido no alto do monte tremendo de dor pedia ao pai
F                    E                Am
perdão para seus inimigos chorando de amor
Bb           E         Am
ó meu doce jesus meus olhos desejam te ver
  F                   E
contemplarte na tua mansão
Bb            E             Am
ó que grande prazer é de um dia contigo ir morar
           F        E               Am
e os teus pés jesus, eu quisera beijar
E            Am
eu quisera beijar.

E|-------------------------------------------------------------------
B|-------------------------------------------------------------------
G|-------------------------------------------------------------------
D|-------------------------------------------------------------------
A|-----7/8--7-----7/8-7----------------------------------------------
E|-0-5--------0-5-------0-5------------------------------------------

E|-------------------------------------------------------------------
B|-------------------------------------------------------------------
G|-------------------------------------------------------------------
D|--------------6----------------------------------------------------
A|-----7/8--7--------------------------------------------------------
E|-0-5--------0------------------------------------------------------

ou

E|-------------------------------------------------------------------
B|-------------------------------------------------------------------
G|-------------------------------------------------------------------
D|-----------------7------------7------------------------------------
A|-------7/8-7----------7/8-7----------------------------------------
E|-0-5----------0------------0---------------------------------------

E|-------------------------------------------------------------------
B|-------------------------------------------------------------------
G|-------------------------------------------------------------------
D|--------------6----------------------------------------------------
A|-----7/8--7--------------------------------------------------------
E|-0-5--------0------------------------------------------------------

(solo)
E|-------------------------------------------------------------------
B|--15-12---13--12h13-12-10---12--13--15--12--17---------------------
G|--------9----------------------------------------------------------
D|-------------------------------------------------------------------
A|-------------------------------------------------------------------
E|-------------------------------------------------------------------

(final)
E|-------------------------------------------------------------------
B|-------------------------------------------------------------------
G|-------------------------------------------------------------------
D|-------------------------------------------------------------------
A|-----7/9--7----5---------------------------------------------------
E|-------------0-----------------------------------------------------

ou

E|-------------------------------------------------------------------
B|-------------------------------------------------------------------
G|-------------------------------------------------------------------
D|---------------7---------------------------------------------------
A|-----7/9--7--------------------------------------------------------
E|-------------0-----------------------------------------------------
Compositor não encontrado.
Colaboração e revisão:
  • john feldmann
4.335 exibições
    • ½ Tom
    • A
    • Bb
    • B
    • C
    • Db
    • D
    • Eb
    • E
    • F
    • F#
    • G
    • Ab
  • Adicionar à lista

    0 comentários

    Ver todos os comentários

    Conseguiu tocar?

    1 Tocaram 0 Ainda não

    Grave um vídeo tocando Amor Tão Profundo e nos envie!

    00:00 / 00:00
    Outros vídeos desta música
    Repetir Qualidade Automático
    Outros vídeos desta música
    00:00 / 00:00
    Automático

    Cifra Club Pro

    Aproveite o Cifra Club com benefícios exclusivos e sem anúncios
    Cifra Club Pro
    Aproveite o Cifra Club com benefícios exclusivos e sem anúncios
    OK