Cifra Club

Aprenda

Los Santos Vienen Ya

En Espiritu Y En Verdad

Cifra: Principal (violão e guitarra)
tom: C
Intro:
E|------------------------------------------------------|
B|--10--------------------------------------------------|
G|------9--9--9--10--10--10--7--7--7--9--9--9--7--9--7--|
D|------------------------------------------------------|
A|------------------------------------------------------|
E|------------------------------------------------------|

Arreglo despues de la intro
(se hace 4 veces)
E|-----------------------------------------------------------------|
B|-----------------13--13--13--10--10--10--10--10--10--12--12--12--|
G|--9--10--10--10--------------------------------------------------|
D|-----------------------------------------------------------------|
A|-----------------------------------------------------------------|
E|-----------------------------------------------------------------|

VERSO 1
Am              C      F              G
Las Voces De Justicia Inundan La Tierra
Am             C      F              G
Con Voces De Adoración Todo Alumbraran

Verso: mientras la otra guitarra toca A C F G con palm mute,
       la guitarra solista solo hace un rasgueo en dichas notas

   las voces de...   justicia    inundan la...    tierra
         A                C           F               G
E|---------------------------------------------------------|
B|---------------------------------------------------------|
G|-----------------------5---------------------------------|
D|-------7---------------5------------3--------------5-----|
A|-------7---------------3------------3--------------5-----|
E|-------5----------------------------1--------------3-----|


Despues del arreglo del bajo, viene este arpegio

   con voces de...   adoracion            todo alum...   ...brarán
         A                C                   F               G
E|------------------------------3-----------------------------------|
B|---------5--------------6--------6------------1--------------3----|
G|------5--------------5---------------------2--------------4-------|
D|---7--------------5---------------------3--------------5----------|
A|------------------------------------------------------------------|
E|------------------------------------------------------------------|
___________________________________________________________________
CORO
F              C            G
Son Los Justos De Nuestro DIOS
F             C       G
Los Escogidos De Jehová

F            C    G
Los Santos Vienen Ya
F                C         G
A Exaltar La Grandeza Del Rey

Coro(un rasgueo por nota)

 son los justos de nuestro Dios, los escogidos de jehova
          F         C      G             F      C      G
E|------------------------------------------------------------------|
B|------------------------------------------------------------------|
G|-----------------5---------------------------5--------------------|
D|-------3---------5------5-------------3------5------5---5-5-5-5-5-|
A|-------3---------3------5-------------3------3------5---5-5-5-5-5-|
E|-------1----------------3-------------1-------------3---3-3-3-3-3-|

  los santos vienen ya, a exaltar la grandeza del rey
        F     C      G         F          C        G
E|------------------------------------------------------|
B|------------------------------------------------------|
G|---------5-5-5-5--------------------5-5-5-5-----------|
D|-3-3-3-3-5-5-5-5-5-5-5-5-5--3-3-3-3-5-5-5-5-5-5-5-5-5-|
A|-3-3-3-3-3-3-3-3-5-5-5-5-5--3-3-3-3-3-3-3-3-5-5-5-5-5-|
E|-1-1-1-1---------3-3-3-3-3--1-1-1-1---------3-3-3-3-3-|
(el rasgueo es como les acomode)

_______________________________________________________________
Dm       Em        F
Y La Luz Resplandecerá
Dm         Am                 G
A Todos Adorar Al DIOS De Majestad.

Esto se hace con octavas: "y la luz resplandecerá"
las primeras 2 octavas se repiten 8 veces, y la tercera se repite 16
E|------------------------------------------------------------------|
B|------------------------------------------------------------------|
G|-7-7-7-7-7-7-7-7--9-9-9-9-9-9-9-9--10-10-10-10-10-10-10-10-10-10--|
D|------------------------------------------------------------------|
A|-5-5-5-5-5-5-5-5--7-7-7-7-7-7-7-7---8--8--8--8--8--8--8--8--8--8--|
E|------------------------------------------------------------------|

"a todos adorar al Dios de majestad"
E|------------------------------------------------------------------|
B|------------------------------------------------------------------|
G|-7-7-7-7-7-7-7-7--------------------------------------------------|
D|------------------7-7-7-7-7-7-7-7--5-5-5-5-5-5-5-5-5-5-5-5-5-5-5--|
A|-5-5-5-5-5-5-5-5--------------------------------------------------|
E|------------------5-5-5-5-5-5-5-5--3-3-3-3-3-3-3-3-3-3-3-3-3-3-3--|

Se repite la introduccion 2 veces; en la primera vez la guitarra
acompañamiento hace palm mute en A, y la segunda vez en C

_________________________________________________________________
VERSO 2:
Am                C        F             G
Vienen Hoy Para Adorar Al Único Lleno De Luz
Am                  C              F            G
Los Puedes Ver Acercándose A Encontrarse Con Su Rey

En el tramo que dice "vienen hoy para adorar al único lleno de luz”
se utilizan octavas:

 cuando la otra guitarra toca A
E|---------------------------------------------------|
B|---------------------------------------------------|
G|-----------10-10-10--9--9--9--7--7--7--5--5--5--5--|
D|--7--7--7------------------------------------------|
A|-----------8--8--8---7--7--7--5--5--5--3--3--3--3--|
E|--5--5--5------------------------------------------|

 cuando toca C
E|---------------------------------------------------|
B|---------------------------------------------------|
G|--5--5--5--10-10-10--9--9--9--7--7--7--5--5--5--5--|
D|---------------------------------------------------|
A|--3--3--3--8--8--8---7--7--7--5--5--5--3--3--3--3--|
E|---------------------------------------------------|

 cuando toca F
E|---------------------------------------------------|
B|---------------------------------------------------|
G|-----------10-10-10--9--9--9--7--7--7--5--5--5--5--|
D|--3--3--3------------------------------------------|
A|-----------8--8--8---7--7--7--5--5--5--3--3--3--3--|
E|--1--1--1------------------------------------------|

 cuando toca G
E|---------------------------------------------------|
B|---------------------------------------------------|
G|-----------10-10-10--9--9--9--5--5--5--4--4--0--0--|
D|--5--5--5------------------------------------------|
A|-----------8--8--8---7--7--7-----------------------|
E|--3--3--3------------------------------------------|
y se repite esto de arriba en la parte que dice
"los puedes ver acercándose a encontrarse con su rey"



Se repite el coro 2 veces (en la segunda ocasión, específicamente
donde dice "y la luz resplandecerá...”  se rasguea mas lento)

__________________________________________________________________
El puente son rasgueos de las notas A C F G, y se hace 2 veces;
sin embargo, hay una pequeña diferencia entre estas ocasiones:

1ra vez
    A A A  A A A     C C C  C C C     F F F  F F F    F F F  F F F
E|-----------------------------------------------------------------|
B|-----------------------------------------------------------------|
G|------------------5-5-5--5-5-5-----------------------------------|
D|--7-7-7--7-7-7----5-5-5--5-5-5-----3-3-3--3-3-3----3-3-3--3-3-3--|
A|--7-7-7--7-7-7----3-3-3--3-3-3-----3-3-3--3-3-3----3-3-3--3-3-3--|
E|--5-5-5--5-5-5---------------------1-1-1--1-1-1----1-1-1--1-1-1--|

2da vez
    A A A  A A A     C C C  C C C    F F F  F F F    F F F  F F F
E|-----------------------------------------------------------------|
B|-----------------------------------------------------------------|
G|------------------5-5-5--5-5-5-----------------------------------|
D|--7-7-7--7-7-7----5-5-5--5-5-5-----3-3-3--3-3-3----3-3-3--3-3-3--|
A|--7-7-7--7-7-7----3-3-3--3-3-3-----3-3-3--3-3-3----3-3-3--3-3-3--|
E|--5-5-5--5-5-5---------------------1-1-1--1-1-1----1-1-1--1-1-1--|

y se la añade 6 rasgueos en G, inmediatamente después de los
rasgueos en F
    G G G  G G G     después viene este arreglo, que se repite 4 veces
E|--------------|   e|--15--------------12-------------------------|
B|--------------|   B|------13--------------13------12-12-12-13-12-|
G|--------------|   G|----------14--------------12-----------------|
D|-5-5-5--5-5-5-|   D|---------------------------------------------|
A|-5-5-5--5-5-5-|   A|---------------------------------------------|
E|-3-3-3--3-3-3-|   E|---------------------------------------------|
____________________________________________________________________
        F     C      G
////////Hosanna Al Rey////////.

La parte final se hace con las mismas notas del coro (F  C  G)

Primero son 4 veces tranquilo; la guitarra solista hace un rasgueo
en los acordes que mencioné y la otra hace palm mute en ellos

    "Hosa...  nna al rey”
         F      C      G
E|------------------------|
B|------------------------|
G|-------------5----------|
D|------3------5------5---|
A|------3------3------5---|
E|------1-------------3---|

Ya en las ultimas 4 veces, donde entran todos los instrumentos,
la guitarra acompañamiento rasguea en F C G y la solista hace
un arpegio mas o menos asi:
         F                C                 G
E|----------------------------------------------------------------|
B|--------1---1------------8---8----------3---3---3-3-3-----------|
G|------2---2------------9---9----------4---4-----------4h5--4----|
D|-3--3-----------10--10-----------5--5---------------------------|
A|----------------------------------------------------------------|
E|----------------------------------------------------------------|
Compositor não encontrado.
Colaboração e revisão:
  • Adilson Raasch
103 exibições
    • ½ Tom
    • A
    • Bb
    • B
    • C
    • Db
    • D
    • Eb
    • E
    • F
    • F#
    • G
    • Ab
  • Adicionar à lista

    0 comentários

    Ver todos os comentários
    00:00 / 00:00
    Outros vídeos desta música
    Repetir Qualidade Automático
    Outros vídeos desta música
    00:00 / 00:00
    Automático

    Cifra Club Pro

    Aproveite o Cifra Club com benefícios exclusivos e sem anúncios
    Cifra Club Pro
    Aproveite o Cifra Club com benefícios exclusivos e sem anúncios
    OK