Cifra Club

Bring Me To Life

Evanescence

Tab de baixo: Principal
Selo Cifra Club: esta cifra foi revisada para atender aos critérios oficiais da nossa Equipe de Qualidade.
[Primeira Parte]

G|----------------------------------------------|
D|----------------------------------------------|
A|----------------------------------------------|
E|--0-0--0-0--0-0--0-0--0-0-0-0-----------------|
B|----------------------------------------------|

G|----------------------------------------------|
D|----------------------------------------------|
A|--------------------------7-------------------|
E|----0-0--0-0--0-0--0--0-0---------------------|
B|----------------------------------------------|

G|----------------------------------------------|
D|----------------------------------------------|
A|----------------------------------------------|
E|--0-0--0-0--0-0--0-0--0-0-0-0-----------------|
B|----------------------------------------------|

G|----------------------------------------------|
D|----------------------------------------------|
A|--------------------------3-------------------|
E|----0-0--0-0--0-0--0--x-0---------------------|
B|----------------------------------------------|

G|----------------------------------------------|
D|----------------------------------------------|
A|----------------------------------------------|
E|--0-0--0-0--0-0--0-0--0-0-0-0-----------------|
B|----------------------------------------------|

G|----------------------------------------------|
D|----------------------------------------------|
A|--------------------------5h7-----------------|
E|----0-0--0-0--0-0--0--x-x---------------------|
B|----------------------------------------------|

G|----------------------------------------------|
D|----------------------------------------------|
A|----------------------------------------------|
E|--0-0--0-0--0-0--0-0--0-0-0-0-----------------|
B|----------------------------------------------|

G|----------------------------------------------|
D|----------------------------------------------|
A|---------------------------3------------------|
E|----0-0--0-0--0-0--0-0-3h5--------------------|
B|----------------------------------------------|

[Refrão]

G|----------------------------------------------|
D|-----------------------------5----------------|
A|--------7-------------------------------------|
E|--0---0-----0---0------3-3-------3---3--------|
B|----------------------------------------------|

G|----------------------------------------------|
D|----------------------------------------------|
A|---------5--------5----------7----------7-5---|
E|-----------------------0---0-----0---0------7-|
B|--3-3--3-----3--------------------------------|

G|----------------------------------------------|
D|------------------------------5---------------|
A|--------7-------------------------------------|
E|--0---------0---0------3-3--3-----3---3-------|
B|----------------------------------------------|

G|----------------------------------------------|
D|----------------------------------------------|
A|---------5-------------------7----------7-5---|
E|-----------------------0---0-----0---0------7\|
B|--3-3--3-----3---3----------------------------|

[Segunda Parte]

G|----------------------------------------------|
D|----------------------------------------------|
A|----------------------------------------------|
E|--0-0--0-0--0-0--0-0--0-0-0-0-----------------|
B|----------------------------------------------|

G|----------------------------------------------|
D|----------------------------------------------|
A|--------------------------7-------------------|
E|----0-0--0-0--0-0--0--0-0---------------------|
B|----------------------------------------------|

G|----------------------------------------------|
D|----------------------------------------------|
A|----------------------------------------------|
E|--0-0--0-0--0-0--0-0--0-0-0-0-----------------|
B|----------------------------------------------|

G|----------------------------------------------|
D|----------------------------------------------|
A|--------------------------3-------------------|
E|----0-0--0-0--0-0--0--x-0---------------------|
B|----------------------------------------------|

G|----------------------------------------------|
D|----------------------------------------------|
A|----------------------------------------------|
E|--0-0--0-0--0-0--0-0--0-0-0-0-----------------|
B|----------------------------------------------|

G|----------------------------------------------|
D|----------------------------------------------|
A|--------------------------5h7-----------------|
E|----0-0--0-0--0-0--0--x-x---------------------|
B|----------------------------------------------|

G|----------------------------------------------|
D|----------------------------------------------|
A|----------------------------------------------|
E|--0-0--0-0--0-0--0-0--0-0-0-0-----------------|
B|----------------------------------------------|

G|----------------------------------------------|
D|----------------------------------------------|
A|---------------------------3------------------|
E|----0-0--0-0--0-0--0-0-3h5--------------------|
B|----------------------------------------------|

[Refrão]

G|----------------------------------------------|
D|-----------------------------5----------------|
A|--------7-------------------------------------|
E|--0---0-----0---0------3---3-----3---3--------|
B|----------------------------------------------|

G|----------------------------------------------|
D|----------------------------------------------|
A|--------5--------------------7----------------|
E|-----------------------0---0-----0---0--0-3-3-|
B|--3---3-----3---3-----------------------------|

G|----------------------------------------------|
D|-----------------------------5----------5-----|
A|--------7-------------------------------------|
E|--0---0-----0---0------3---3-----3---3--------|
B|----------------------------------------------|

G|----------------------------------------------|
D|----------------------------------------------|
A|--------5-------------------7----------7-5----|
E|----------------------0---0-----0---0------7\-|
B|--3---3-----3---3--4--------------------------|

[Interlúdio]

G|----------------------------------------------|
D|----------------------------------------------|
A|--3--------------------5---5------------------|
E|---------3--------------------5---------------|
B|-----------1----1-1--1----------3----3-3--3---|

G|----------------------------------------------|
D|----------------------------------------------|
A|----------------------------------------------|
E|--0-0--0-0--0-0--0-0--0-0-0-0-----------------|
B|----------------------------------------------|

G|----------------------------------------------|
D|----------------------------------------------|
A|----------------------------------------------|
E|----0-0--0-0--0-0--0-0-0-0-0-0----------------|
B|----------------------------------------------|

G|----------------------------------------------|
D|----------------------------------------------|
A|--3---3----------------5---5------------------|
E|---------3--------------------5---------------|
B|-----------1----1-1--1----------3----3-3--3---|

G|----------------------------------------------|
D|----------------------------------------------|
A|----------------------------------------------|
E|--0-0--0-0--0-0--0-0--0-0-0-0-----------------|
B|----------------------------------------------|

G|----------------------------------------------|
D|----------------------------------------------|
A|----------------------------------------------|
E|--0----2----3----5/7--------------------------|
B|----------------------------------------------|

[Ponte]

G|----------------------------------------------|
D|-------------7--------7-5---------------------|
A|---------5h7--------7-------5---3-2-----------|
E|--5---------------------------------3-------3-|
B|------------------------------------------3---|

G|----------------------------------------------|
D|-------------4--------------------------------|
A|---------2h4----------------------------------|
E|--2---------------------0----2----3----5/7----|
B|----------------------------------------------|

G|----------------------------------------------|
D|-------------7--------7-5---------------------|
A|---------5h7--------7-------5---3-2-----------|
E|--5---------------------------------3---------|
B|----------------------------------------------|

G|----------------------------------------------|
D|----------------0-2-3-4-----------------------|
A|--2--------2----------------------------------|
E|----------------------------------------------|
B|----------------------------------------------|

[Terceira Parte]

G|----------------------------------------------|
D|----------------------------------------------|
A|----------------------------------------------|
E|--0-0--0-0--0-0--0-0--0-0-0-0-----------------|
B|----------------------------------------------|

G|----------------------------------------------|
D|----------------------------------------------|
A|--------------------------5h7-----------------|
E|----0-0--0-0--0-0--0--x-0---------------------|
B|----------------------------------------------|

G|----------------------------------------------|
D|----------------------------------------------|
A|----------------------------------------------|
E|--0-0--0-0--0-0--0-0--0-0-0-0-----------------|
B|----------------------------------------------|

G|----------------------------------------------|
D|----------------------------------------------|
A|----------------3h5-3-0-3p2---2---------------|
E|----0-0--0-0--0-------------3-----------------|
B|----------------------------------------------|

G|----------------------------------------------|
D|----------------------------------------------|
A|----------------------------------------------|
E|--0-0--0-0--0-0--0-0--0-0-0-0-----------------|
B|----------------------------------------------|

G|----------------------------------------------|
D|----------------------------------------------|
A|--------------------------5h7-----------------|
E|----0-0--0-0--0-0--0--x-0---------------------|
B|----------------------------------------------|

G|----------------------------------------------|
D|----------------------------------------------|
A|----------------------3-3-3-3-----------------|
E|--0-0--0-0--0-0--0-0--------------------------|
B|----------------------------------------------|

G|----------------------------------------------|
D|----------------------------------------------|
A|----5-5--5-5--5-3-2-0-------------------------|
E|----------------------3-2---2-----------------|
B|--------------------------3---3---------------|

[Refrão]

G|----------------------------------------------|
D|-----------------------------5----------------|
A|--------7-------------------------------------|
E|--0---0-----0---0------3---3-----3---3--------|
B|----------------------------------------------|

G|----------------------------------------------|
D|----------------------------------------------|
A|--------5-------------------------------12\---|
E|----------------------------------------------|
B|--3---3-----3---3\----------------------------|

G|----------------------------------------------|
D|-----------------------------5----------------|
A|--------7-------------------------------------|
E|--0---0-----0---0------3---3-----3---3--------|
B|----------------------------------------------|

G|----------------------------------------------|
D|----------------------------------------------|
A|--------5-------------------7--------7--7-5---|
E|----------------------0---0-----0--0--------7\|
B|--3---3-----3---3--4--------------------------|

[Final]

G|----------------------------------------------|
D|----------------------------------------------|
A|-3---3--0-3--0-3--3---3-------5---------------|
E|--------------------3--------------------2-3-5|
B|------------------------3---3----3--0-3-------|

G|----------------------------------------------|
D|----------------------------------------------|
A|--3----3--0-3--0-3---3---3--------------------|
E|-----------------------3----------------------|
B|----------------------------------------------|

G|----------------------------------------------|
D|----------------------------------------------|
A|--------5-------------------------------------|
E|--------------------2-3-5---------------------|
B|--3---3-----3--0-3----------------------------|

G|----------------------------------------------|
D|----------------------------------------------|
A|----------------------------------------------|
E|--0-0--0-0--0-0--0-0--0-0-0-0-----------------|
B|----------------------------------------------|

G|----------------------------------------------|
D|----------------------------------------------|
A|-------7-------7--7-5-------------------------|
E|--0---------0---------7\----------------------|
B|----------------------------------------------|

G|----------------------------------------------|
D|---------------5--2---------------------------|
A|--3----3--0-3--------3---3--------------------|
E|-----------------------3----------------------|
B|----------------------------------------------|

G|----------------------------------------------|
D|----------------------------------------------|
A|--5---5-5--0-5--0-5--3-2----------------------|
E|-------------------------5-3------------------|
B|----------------------------------------------|
Outros vídeos desta música
    37.162 exibições

    Afinação da cifra

    Afinador online

    0 comentários

    Ver todos os comentários

    Entre para o Cifra Club PRO

    Tenha acesso a benefícios exclusivos no App e no Site

    • Chega de anúncios

    • Badges exclusivas

    • Mais recursos no app do Afinador

    • Atendimento Prioritário

    • Aumente seu limite de lista

    • Ajude a produzir mais conteúdo

    Capítulos
    • Apresentação
    • Primeira Parte
    • Refrão
    • Segunda Parte
    • Repetição do Refrão
    • Interlúdio
    • Ponte
    • Terceira Parte
    • Repetição do Refrão
    • Final
    • Encerramento

    Cifra Club Pro

    Aproveite o Cifra Club com benefícios exclusivos e sem anúncios
    Cifra Club Pro
    Aproveite o Cifra Club com benefícios exclusivos e sem anúncios
    Ops (: Contenido disponible sólo en portugués.
    OK