Cifra Club

Eclipsed

Evans Blue

Tab de baixo: Principal
Intro

-----------------------------------------|
-----------------------------------------|
-----------------------------------------|
----4------------------------------------|

Verses

-----------------------------------------|---------------------------------|------------------------|
-----------------------------------------|---------------------------------|------------------------|
-----------------------------------------|---------------------------------|------------------------|
----2----4--4-------4--4--4--------------|----2----4--4--------4---2--2----|-----4------------------|
Verse 1: x4 Verse 2: x6

Chorus

-----------------------------------------|
-----------------------------------------|
-----------------------------------------|
------4--4--7-7-7-7-7--2--2--2-2-2-2-3-4-|x3


-----------------------------------------|
-----------------------------------------|
-----------------------------------------|
------2--2--0-0-0-0-0--3--4--------------|
00:00 / 00:00
Outros vídeos desta música
Repetir
Outros vídeos desta música
Composição de Evans Blue
420 exibições

0 comentários

Ver todos os comentários

Entre para oCifra Club PRO

Tenha acesso a benefícios exclusivos no App e no Site

  • Chega de anúncios

  • Prioridade de compra em lançamentos

  • Mais recursos no app do Afinador

  • Atendimento Prioritário

  • Descontos nos produtos Cifra Club

  • Ajude a produzir mais conteúdo

00:00 / 00:00

Cifra Club Pro

Aproveite o Cifra Club com benefícios exclusivos e sem anúncios
Cifra Club Pro
Aproveite o Cifra Club com benefícios exclusivos e sem anúncios
OK