Cifra Club

Hooch

Everything

Cifra: Versão 2 (violão e guitarra)
Selo Cifra Club: esta cifra foi revisada para atender aos critérios oficiais da nossa Equipe de Qualidade.
tom: E
intro riff if u cant follow it up w/ the actual song. the verse part is played very quietly,
if you listen to the song and turn the bass down you can hear it and get the timeing right.
and just listen to the song so you can figure out when to play everything.

i also realized no one tabed this thing really, its impossible to find a tab online for it,
so in my own opinion this is the only real tab for this song on the internet, enjoy

intro:
riff 1
E|--------7------------7---------------------------------|
B|-------------------------------------------------------|
G|--7-7/8----r---7-7/8-----------------------------------|
D|-------------------------------------------------------|
A|-------------------------------------------------------|
E|-------------------------------------------------------|

riff 2
E|--------7-----------7-----------7-----------7----------|
B|------7---5-------7---5-------7---5-------7---5--------|
G|--7/8---------7/8---------7/8---------7/8--------------|
D|-------------------------------------------------------|
A|-------------------------------------------------------|
E|-------------------------------------------------------|

verse: (very quietly, you can bearly hear it)improvise a little
E|--9----(7)-----9---(7)----9--(7)----9--(7)(7)(7)(7)(7)-|
B|--9----(7)-----9---(7)----9--(7)----9--(7)(7)(7)(7)(7)-|
G|-------------------------------------------------------|
D|-------------------------------------------------------| x2
A|-------------------------------------------------------|
E|-------------------------------------------------------|

Chorus(also has riff 2 played along with it)
E|--9-9-7---9-9-7---9-9-7---9-9-7------------------------|
B|--9-9-7---9-9-7---9-9-7---9-9-7------------------------|
G|-------------------------------------------------------| x2
D|-------------------------------------------------------|
A|-------------------------------------------------------|
E|-------------------------------------------------------|

"Lets get real lets get..."
E|-------------------------------------------------------|
B|--4--5--7--9--12---------------------------------------|
G|-------------------------------------------------------|
D|-------------------------------------------------------|
A|-------------------------------------------------------|
E|-------------------------------------------------------|
Outros vídeos desta música
      • ½ Tom
      • A
      • Bb
      • B
      • C
      • Db
      • D
      • Eb
      • E
      • F
      • F#
      • G
      • Ab
    • Adicionar à lista

    Afinação da cifra

    Afinador online

      0 comentários

      Ver todos os comentários

      Entre para o Cifra Club PRO

      Tenha acesso a benefícios exclusivos no App e no Site

      • Chega de anúncios

      • Badges exclusivas

      • Mais recursos no app do Afinador

      • Atendimento Prioritário

      • Aumente seu limite de lista

      • Ajude a produzir mais conteúdo

      Cifra Club Pro

      Aproveite o Cifra Club com benefícios exclusivos e sem anúncios
      Cifra Club Pro
      Aproveite o Cifra Club com benefícios exclusivos e sem anúncios
      OK