Cifra Club

Good Girls, Bad Guys

Falling In Reverse

Cifra: Principal (violão e guitarra)
Selo Cifra Club: esta cifra foi revisada para atender aos critérios oficiais da nossa Equipe de Qualidade.
tom: C
Drop C


E|---------------------------------------------------------------------------|
B|---------------------------------------------------------------------------|
G|---------------------------------------------------------------------------|
D|--7-7-5-7----3-3-3----5-5-5------------x10-x6------------------------------|
A|--5-5-3-5----1-1-1----3-3-3----5-5-3-5-x8--x4------------------------------|
E|---------------------------------------------------------------------------|
   Pm all 2nd bar
E|---------------------------------------------------------------------------|
B|---------------------------------------------------------------------------|
G|---------------------------------------------------------------------------|
D|--7-----5-----3-----5-----7-----5------------------------------------------| >x16  >x16  >x16
A|--5-----3-----1-----3-----5-----3------------------------------------------| >x16  >x16  >x16
E|---------------------------------------------------------------------------|

E|---------------------------------------------------------------------------|
B|---------------------------------------------------------------------------|
G|---------------------------------------------------------------------------|
D|--3---5--------------------------------------------------------------------|
A|--1---3--------------------------------------------------------------------|
E|---------------------------------------------------------------------------|

Refrão

E|---------------------------------------------------------------------------|
B|---------------------------------------------------------------------------|
G|---------------------------------------------------------------------------|
D|--7-3-3-5------------3----5------------------------------------------------| Final <   >x8  >x8
A|--5-1-3-3------------1----3------------------------------------------------|
E|------3--------------------------------------------------------------------|


Solo

(2:00)
D|---17--17br--15--17--17br-----------------13-17-15-13-15----------------|
A|--------------------------18~----------15----------------18-17-15-17----|
F|------------------------------------14----------------------------------|
C|---------------------------------15-------------------------------------|
G|------------------------------------------------------------------------|
C|------------------------------------------------------------------------|

(2:06)
D|------------------------------------------------------13----|
A|-17-15-14------------------------------------13-------------|
F|----------17-15-14-15-17-15-14------10----------------------|
C|-------------------------------15~-----10-10----10-10-------|
G|------------------------------------------------------------|
C|------------------------------------------------------------|

(2:08)
D|---22-------20-------21~--20-18-17-18-17----17-------------------|
A|------18-------18------------------------20----20-18-20-18-17----|
F|---------17-------17---------------------------------------------|
C|-----------------------------------------------------------------|
G|-----------------------------------------------------------------|
C|-----------------------------------------------------------------|

(2:12)
D|------------------------------17----17-22~----|
A|------------15----15-18-15-18----15-----------|
F|---------14----14-----------------------------|
C|---12-15--------------------------------------|
G|----------------------------------------------|
C|----------------------------------------------|

(2:14) (trem picking)
D|---------------------------------------------------------------------|
A|---------------------------------------------------------------------|
F|------------12-14-15----------12-14-15----------14-15-17-14-15-17----|
C|---12-14-15----------12-14-15----------14-15-17----------------------|
G|---------------------------------------------------------------------|
C|---------------------------------------------------------------------|

D|-----------------------------------15-17-18----|
A|--------------------------15-17-18-------------|
F|------------15-17-19-19+~----------------------|
C|---15-17-19------------------------------------|
G|-----------------------------------------------|
C|-----------------------------------------------|

D|--20-18-17-------------------------------17-22-17----17-21br--------|
A|-----------20-18-17-------------------19----------19---------18~----|
F|--------------------19-17-15-17-19-18-------------------------------|
C|--------------------------------------------------------------------|
G|--------------------------------------------------------------------|
C|--------------------------------------------------------------------|

(2:20)
D|-------------------------------------------|
A|---18-17-18-17-------------15--------------|
F|---------------14-12----12----14~-12-14----|
C|---------------------15--------------------|
G|-------------------------------------------|
C|-------------------------------------------|

(2:23) (tapping)
D|---22-17-13-------------------------------|
A|------------22-18-15----------------------|
F|---------------------21-14-12-19-14-12----|
C|------------------------------------------|
G|------------------------------------------|
C|------------------------------------------|

(2:25)
D|----------------------------------------------------------------|
A|--15-17-18-17-15------------------------------------------------|
F|-----------------18-17-15---------------------------------------|
C|--------------------------17-15-14-15-17-15-14------------------|
G|-----------------------------------------------17-15-14---------|
C|--------------------------------------------------------15~\----|
Outros vídeos desta música
    4.036 exibições
      • ½ Tom
      • A
      • Bb
      • B
      • C
      • Db
      • D
      • Eb
      • E
      • F
      • F#
      • G
      • Ab
    • Adicionar à lista

    Afinação da cifra

    Afinador online

      0 comentários

      Ver todos os comentários

      Entre para o Cifra Club PRO

      Tenha acesso a benefícios exclusivos no App e no Site

      • Chega de anúncios

      • Badges exclusivas

      • Mais recursos no app do Afinador

      • Atendimento Prioritário

      • Aumente seu limite de lista

      • Ajude a produzir mais conteúdo

      Cifra Club Pro

      Aproveite o Cifra Club com benefícios exclusivos e sem anúncios
      Cifra Club Pro
      Aproveite o Cifra Club com benefícios exclusivos e sem anúncios
      Ops (: Contenido disponible sólo en portugués.
      OK