Notificações Amigos pendentes

      Flavio Pedro

      Californication

      7.086 exibições
      Tom: C
      (intro 4x)
      
      
      E|---------------------------------------------------
      B|-------0---1---------------------------------------
      G|---------------------------------------------------
      D|----2-----------0h2h0--------------0---2-----------
      A|-0----------------------------3-----------3--2-----
      E|-------------------------1-------------------------
      
      
                                                          (Dm)
      E|-------0--------------------------------------1------
      B|-------------------0--------------------------3------
      G|----0----0-----------------------2-----------2-------
      D|----------------0----0-----------------0----0-------
      A|-3----------------------------3-----3---------------
      E|-------------3-----------1--------------------------
      
      
      e continua executando nas partes em que a base segue a sequência (Am  F)
      
      Am                                 F
      Psychic spies from China try to  steal your minds elation
      Am                                  F
      little girls from sweeden dream of silver screen quotations
      C                      G                 F         Dm       (Am  F)
      and if you want these kind of dreams its californication.
      
            Am
      Its the edge of the world
                   F
      And all of western civization
           Am
      The sun may rise in the east
                   F
      At least it settles in the final location
         C                 G              F        Dm      (Am F7+)
      It`s understood that Hollywood sell Californication
      
      Am                             F7+
      Pay your surgeon very well to break the spell of ageing
         Am                              F7+
      Celerity skin is this your chin or is that the war your waging?
      
      Am                F7+
         First born unicorn
      Am                 F7+
         Hard core soft porn
      C             G    Dm  Am    C             G    Dm
      Dream of californication     dream of californication
      C             G    Dm  Am    C             G    Dm     (Am  F)
      Dream of californication     dream of californication
      
      Am
      Marry me girl be my fairy to the world
         F
      Be my very own constellation
         Am                                       F
      A teenage bride with a baby inside getting high of information
           C                    G             F       Dm       (Am  F)
      And buy me a star on the boulavard its californication
      
       Am                                     F
      Space may be the final frontier but its made
      
      in a hollywood basement
      Am
      Cobain can you hear the spreres
               F
      singing songs off station to station
      C                 G                   Dm      (Am F7+)
      And alderons not far away its californication
      
      Am
      Born and raised by who praise
          F7+
      Control of population
      Am                           F7+
      Everybodys been there and i dont
      
      Mean on vaction
      
      Am                F7+
         First born unicorn
      Am                 F7+
         Hard core soft porn
      C             G    Dm  Am    C             G    Dm
      Dream of californication     dream of californication
      C             G    Dm  Am    C             G    Dm
      Dream of californication     dream of californication
      
      (solo) F#m D (2x)
             Bm D A E (1x)
             F#m D (2x)
             Bm D A E (3x)
      
      
      E|----------------9----------------------------------9--------------------------------------------
      B|---------10--------------------------------10--------------------------------------------------
      G|--------------------------11b--11---------------------11b-----11--11--11--11---9-----------
      D|----------------------------------------------------------------------------------------11--11-
      A|------------------------------------------------------------------------------------------------
      E|------------------------------------------------------------------------------------------------
      
      
      E|----------------------------------------------------------9------12----14---------9--12-------
      B|---------------------9----------------------------10-------------------------10---------------
      G|----------------9-----------11---9-------------------------------------------------------------
      D|-----9--11---------------------------------11--------------------------------------------------
      A|------------------------------------------------------------------------------------------------
      E|------------------------------------------------------------------------------------------------
      
      
      E|-----14b----14------17----16---14---------------14------------------------------------------
      B|------------------------------------------17---------------17-------14-----17---14-14-14-14
      G|------------------------------------------------------------------------------------------------
      D|------------------------------------------------------------------------------------------------
      A|------------------------------------------------------------------------------------------------
      E|------------------------------------------------------------------------------------------------
      
      
      E|--------------------14b-----12------------12-----------------------------12-------------------
      B|----17-----14-----------------------14-------------14-----12-----------------15---14--------
      G|--------------------------------------------------------------------14------------------14-----
      D|------------------------------------------------------------------------------------------------
      A|------------------------------------------------------------------------------------------------
      E|------------------------------------------------------------------------------------------------
      
      
      (Am  F)
      
         Am                                         F
      Destruction leads to a very rough road but it also
      
      breeds creation
        Am
      And earthquakes are to a girls guitar
              F
      therye just another good vibration
         C                      G                   F       Dm       (Am F7+)
      and tidal waves couldent save the world from californication
      Am                             F7+
      Pay your surgeon very well to break the spell of ageing
      Am
      sicker than the rest
      
      there is no test
              F
      but is this what your craving
      
      Am                F7+
         First born unicorn
      Am                 F7+
         Hard core soft porn
      C             G    Dm  Am    C             G    Dm
      Dream of californication     dream of californication
      C             G    Dm  Am    C             G    Dm
      Dream of californication     dream of californication

      Comentários 0

      140 .
      140 cancelar

      conseguiu tocar?

      covers

      Grave um vídeo tocando Californication e mande pra gente!

      Ex.: http://www.youtube.com/watch?v=0IvSvIwGdwk
      ver covers de outras músicas »
      0:00 / 0:00

      Capítulos

        1 versão de violão dificuldade exibições contribuição e correção
        1 versão de guitarra dificuldade exibições contribuição e correção
        1 versão de cavaco dificuldade exibições contribuição e correção
        1 versão de teclado dificuldade exibições contribuição e correção
        play/pausefechar subir/descer velocidade
        6ª corda E5ª corda A4ª corda D3ª corda G2ª corda B1ª corda E
          acordes
          publicidade
          fechar
          ok