Cifra Club

Aprenda

Apesar Dos Idiotas

Flicts

Tab de baixo: Principal
	Riff 1
G|-----------------------------------------------|----------|
D|-------------------4---------------------------|----------|
A|----------4-5-5-5-----7-7-7---5—5-5-5----------|-5—7-7----|
E|-5-5-5-5-------------------------------5-5-5-5-|--------9-|
	Riff 2
G|---------------------------------------|
D|---------------------------------------|
A|--4-4-4-4--5-5-5-5---4-4-4-4---7-7-7-7-|
E|---------------------------------------|
	Refrão
G|----------------------------------------------------------|
D|----------------------------------------------------------|
A|---------5-5-5-5---------5-5-5-5----------5-5-5-5-7-7-7-7-|
E|-5-5-5-5---------5-5-5-5----------5-5-5-5-----------------|

Riff 1
O MEU TEMPO ESTÁ PASSANDO
MINHA MORTE ESTÁ CHEGANDO
E AINDA NÃO GANHEI VOCÊ
Riff 1
TODO DIA PELAS RUAS
NUMA VIDA NUA E CRUA
E AINDA TENHO QUE APRENDER
Riff 2
VOCÊ ME VIROU AS COSTAS
SEUS LARES ME FECHARAM AS PORTAS
SUAS RUAS HÃO DE ACOLHER
Refrão
A MULTIDÃO ME TIROU VOCÊ
ME ATIROU PELAS RUAS, ONDE VOU VIVER
APESAR DOS IDIOTAS EU AMO VOCÊ



Obs: Ta ai a base da música, agora é só ouvir e praticar e facinha essa música!!!
Composição de Flicts
Colaboração e revisão:
  • Maluko
932 exibições

0 comentários

Ver todos os comentários

Conseguiu tocar?

0 Tocaram 0 Ainda não

Grave um vídeo tocando Apesar Dos Idiotas e nos envie!

00:00 / 00:00
Outros vídeos desta música
Repetir Qualidade Automático
Outros vídeos desta música
00:00 / 00:00
Automático

Cifra Club Pro

Aproveite o Cifra Club com benefícios exclusivos e sem anúncios
Cifra Club Pro
Aproveite o Cifra Club com benefícios exclusivos e sem anúncios
OK