Cifra Club

Ruja o Leão

Florianópolis House Of Prayer (fhop music)

Cifra: Principal (violão e guitarra)
Selo Cifra Club: esta cifra foi revisada para atender aos critérios oficiais da nossa Equipe de Qualidade.
tom: F#m
[Intro] F#m7  E  D  Bm7

[Primeira Parte]

 F#m7          E/F#  
Sobre o trono de justiça 
  Bm/F#                F#m7
Eternamente haverá um Rei
     F#m7         E/F#
Ele voltará para governar
      Bm/F#    F#m7
As nações em amor

[Refrão]

[Tab - Refrão - Guitarra 2]

  F#m7(11) E        D2  Bm7(11) F#m7(11)
E|-----------------------7-------------------|
B|-10------10--9----7----7------10-----------|
G|-X-------X---X----7----7------X------------| (2x)
D|-11------7---6----7----9------11-----------|
A|-9----------------------------9------------|
E|---------0---------------------------------|

     E       F#m7(11)
Que ruja o Leão
                  E
E que a Terra estremeça
           D2   Bm7(11)   F#m7(11)    
Diante da majestade de Jesus

Que ruja o Leão
                    E4  E
E que a Terra estreme__ça
           D2   Bm7(11)   F#m7(11)    
Diante da majestade de Jesus

( F#m7  E  D  Bm7 )

[Primeira Parte]

[Tab - Primeira Parte - Guitarra 1]

Parte 1 de 2 - 15x
   F#5
E|------------------------------------------|
B|------------------------------------------|
G|------------------------------------------|
D|------------------------------------------|
A|-4--4--4--4--4--4--4--4-------------------|
E|-2--2--2--2--2--2--2--2-------------------|
   ↓  ↓  ↓  ↓  ↓  ↓  ↓  ↓

Parte 2 de 2
   F#5         E5
E|------------------------------------------|
B|------------------------------------------|
G|------------------------------------------|
D|------------------------------------------|
A|-4--4--4--4--2----------------------------|
E|-2--2--2--2--0----------------------------|
   ↓  ↓  ↓  ↓  ↓

[Tab - Primeira Parte - Guitarra 2]

Parte 1 de 3
   F#m
E|-9-------9---------------9----9-----------|
B|-10-----------12-----------10-----------10|
G|-11---11---11----11---11--------11---11---|
D|------------------------------------------|
A|------------------------------------------|
E|------------------------------------------|

Parte 2 de 3
E|----9---------------9------------9--------|
B|------12-12-----------10-12--------10-----|
G|-11---------11---11---------11--------11--|
D|------------------------------------------|
A|------------------------------------------|
E|------------------------------------------|

Parte 3 de 3
            E5    
E|------------------------------------------|
B|----------9-------------------------------|
G|-9/11-----9-------------------------------|
D|-9/11-----7-------------------------------|
A|------------------------------------------|
E|------------------------------------------|

 F#5
Sobre o trono de justiça 

Eternamente haverá um Rei

Ele voltará para governar 
                 
As nações em amor

[Refrão]

[Tab - Refrão - Guitarra 2]

Parte 1 de 13
   F#m  E       D   Bm   F#m          E5
E|------------------7-----------------------|
B|-10---10--9---7---7----10--10-10----------|
G|-x----x---x---7---7----X---X--X-----9--9--|
D|-11---7---6---7---9----11--11-11----9--9--|
A|-9----x---x------------9---9--9-----------|
E|------0---0-------------------------------|

Parte 2 de 13
   F#m
E|------------------------------------------|
B|-10--10--10--10--10--10--10--10-----------|
G|-x---x---x---x---x---x---x---x------------|
D|-11--11--11--11--11--11--11--11-----------|
A|-9---9---9---9---9---9---9---9------------|
E|------------------------------------------|

Parte 3 de 13
   E
E|------------------------------------------|
B|-10---10-9----9---9---9---9---9-----------|
G|-x----x--x----x---x---x---x---x-----------|
D|-7----7--6----6---6---6---6---6-----------|
A|-x----x--x----x---x---x---x---x-----------|
E|-0----0--0----0---0---0---0---0-----------|

Parte 4 de 13
   D               Bm
E|------------------------------------------|
B|-7---7---7---7---7---7---7---7------------|
G|-7---7---7---7---7---7---7---7------------|
D|-7---7---7---7---9---9---9---9------------|
A|------------------------------------------|
E|------------------------------------------|

Parte 5 de 13
   F#m                       E5
E|------------------------------------------|
B|-10--10--10--10--10--10-------------------|
G|-x---x---x---x---x---x-----9--9-----------|
D|-11--11--11--11--11--11----9--9-----------|
A|-9---9---9---9---9---9-----7--7-----------|
E|------------------------------------------|

Parte 6 de 13
   F#m
E|------------------------------------------|
B|-10--10--10--10--10--10--10--10-----------|
G|-x---x---x---x---x---x---x---x------------|
D|-11--11--11--11--11--11--11--11-----------|
A|-9---9---9---9---9---9---9---9------------|
E|------------------------------------------|

Parte 7 de 13
   E
E|------------------------------------------|
B|-10---10-9----9---9---9---9---9-----------|
G|-x----x--x----x---x---x---x---x-----------|
D|-7----7--6----6---6---6---6---6-----------|
A|-x----x--x----x---x---x---x---x-----------|
E|-0----0--0----0---0---0---0---0-----------|

Parte 8 de 13
   D               Bm
E|------------------------------------------|
B|-7---7---7---7---7---7---7---7------------|
G|-7---7---7---7---7---7---7---7------------|
D|-7---7---7---7---9---9---9---9------------|
A|------------------------------------------|
E|------------------------------------------|

Parte 9 de 13
   F#m                       E5
E|------------------------------------------|
B|-10--10--10--10--10--10-------------------|
G|-x---x---x---x---x---x-----9--9-----------|
D|-11--11--11--11--11--11----9--9-----------|
A|-9---9---9---9---9---9-----7--7-----------|
E|------------------------------------------|

Parte 10 de 13
   F#m
E|------------------------------------------|
B|-10--10--10--10--10--10--10--10-----------|
G|-x---x---x---x---x---x---x---x------------|
D|-11--11--11--11--11--11--11--11-----------|
A|-9---9---9---9---9---9---9---9------------|
E|------------------------------------------|

Parte 11 de 13
   E
E|------------------------------------------|
B|-10---10-9----9---9---9---9---9-----------|
G|-x----x--x----x---x---x---x---x-----------|
D|-7----7--6----6---6---6---6---6-----------|
A|-x----x--x----x---x---x---x---x-----------|
E|-0----0--0----0---0---0---0---0-----------|

Parte 12 de 13
   D               Bm
E|------------------------------------------|
B|-7---7---7---7---7---7---7---7------------|
G|-X---X---X---X---7---7---7---7------------|
D|-7---7---7---7---9---9---9---9------------|
A|-5---5---5---5----------------------------|
E|------------------------------------------|

Parte 13 de 13
   F#m                      
E|------------------------------------------|
B|-10--10--10--10--10--10--10--10-----------|
G|-x---x---x---x---x---x---x---x------------|
D|-11--11--11--11--11--11--11--11-----------|
A|-9---9---9---9---9---9---9---9------------|
E|------------------------------------------|

     E5      F#5
Que ruja o Leão
                    E5
E que a Terra estremeça
           D5   B5        F#5  
Diante da majestade de Jesus
     E5      F#5
Que ruja o Leão
                    E5
E que a Terra estremeça
           D5   B5        F#5  
Diante da majestade de Jesus
     E5      F#5
Que ruja o Leão
                    E5
E que a Terra estremeça
           D5   B5        F#5  
Diante da majestade de Jesus
     E5      F#5
Que ruja o Leão
                    E5
E que a Terra estremeça
           D5   B5        F#5  
Diante da majestade de Jesus

[Solo 1] E5  D5  B5
         F#5  E5  D5  B5

[Tab - Solo 1 - Guitarra 2]

Parte 1 de 6
E|----------------------------------------------------|
B|----9-10-12-9-10-------------9-10-12-9-10----10b12~-|
G|-11--------------11~-11~--11--------------11--------|
D|----------------------------------------------------|
A|----------------------------------------------------|
E|----------------------------------------------------|

Parte 2 de 6
E|----------------------------------------------------|
B|----9-10-12-9-10---------------9-10-12-9-10---------|
G|-11--------------11~--11~---11--------------11~-11~-|
D|----------------------------------------------------|
A|----------------------------------------------------|
E|----------------------------------------------------|

Parte 3 de 6
E|----16-17-19-16-17-------19b21r--b21~---------------|
B|-19----------------19~------------------------------|
G|----------------------------------------------------|
D|----------------------------------------------------|
A|----------------------------------------------------|
E|----------------------------------------------------|

Parte 4 de 6
E|----16-17-19-16-17-------14------14-----------------|
B|-19----------------19~---17b19--b19-----------------|
G|----------------------------------------------------|
D|----------------------------------------------------|
A|----------------------------------------------------|
E|----------------------------------------------------|

Parte 5 de 6
E|----16-17-19-16-17-------19b21r19b21r19b21----------|
B|-19----------------19~------------------------------|
G|----------------------------------------------------|
D|----------------------------------------------------|
A|----------------------------------------------------|
E|----------------------------------------------------|

Parte 6 de 6
E|----16-17-19-16-17----------------------------------|
B|-19----------------19~~/----------------------------|
G|----------------------------------------------------|
D|----------------------------------------------------|
A|----------------------------------------------------|
E|----------------------------------------------------|

[Ponte]

[Tab - Ponte - Guitarra 2]

Parte 1 de 5
   F#m     E     D     Bm    F#m    E
E|------------------------------------------|
B|-10------9-----7-----3-----10-----9-------|
G|-X-------X-----X-----X-----X------X-------|
D|-11------9-----7-----4-----11-----9-------|
A|-9-------7-----5-----2-----9------7-------|
E|------------------------------------------|

Parte 2 de 5
   F#m                      
E|------------------------------------------|
B|-10--10--10--10--10--10--10--10-----------|
G|-x---x---x---x---x---x---x---x------------|
D|-11--11--11--11--11--11--11--11-----------|
A|-9---9---9---9---9---9---9---9------------|
E|------------------------------------------|

Parte 3 de 5
   E                 
E|------------------------------------------|
B|-9---9---9---9---9---9---9---9------------|
G|-9---9---9---9---9---9---9---9------------|
D|-9---9---9---9---9---9---9---9------------|
A|------------------------------------------|
E|------------------------------------------|

Parte 4 de 5
   D               Bm
E|------------------------------------------|
B|-7---7---7---7---7---7---7---7------------|
G|-7---7---7---7---7---7---7---7------------|
D|-7---7---7---7---9---9---9---9------------|
A|------------------------------------------|
E|------------------------------------------|

Parte 5 de 5
   F#m                           E
E|------------------------------------------|
B|-10--10--10--10--10--10--10----9----------|
G|-x---x---x---x---x---x---x-----x----------|
D|-11--11--11--11--11--11--11----9----------|
A|-9---9---9---9---9---9---9-----7----------|
E|------------------------------------------|
  
   F#m
O descendente de Davi
   E
O homem mais notável
    D         Bm     F#m            F#m/E           
Ele ama a justiça, odeia iniquidade

   F#m
O descendente de Davi
   E
O homem mais notável
    D         Bm     F#m            E5          
Ele ama a justiça, odeia iniquidade

   F#5
O descendente de Davi
   E5
O homem mais notável
    D5        B5     F#5            E5           
Ele ama a justiça, odeia iniquidade

   F#5
O descendente de Davi
   E5
O homem mais notável
    D5        B5     F#5                 
Ele ama a justiça, odeia iniquidade

[Refrão]

[Tab - Refrão - Guitarra 2]

Parte 1 de 8
   F#m
E|------------------------------------------|
B|-10--10--10--10--10--10--10--10-----------|
G|-x---x---x---x---x---x---x---x------------|
D|-11--11--11--11--11--11--11--11-----------|
A|-9---9---9---9---9---9---9---9------------|
E|------------------------------------------|

Parte 2 de 8
   E
E|------------------------------------------|
B|-10---10-9----9---9---9---9---9-----------|
G|-x----x--x----x---x---x---x---x-----------|
D|-7----7--6----6---6---6---6---6-----------|
A|-x----x--x----x---x---x---x---x-----------|
E|-0----0--0----0---0---0---0---0-----------|

Parte 3 de 8
   D               Bm
E|------------------------------------------|
B|-7---7---7---7---7---7---7---7------------|
G|-7---7---7---7---7---7---7---7------------|
D|-7---7---7---7---9---9---9---9------------|
A|------------------------------------------|
E|------------------------------------------|

Parte 4 de 8
   F#m                       E5
E|------------------------------------------|
B|-10--10--10--10--10--10-------------------|
G|-x---x---x---x---x---x-----9--9-----------|
D|-11--11--11--11--11--11----9--9-----------|
A|-9---9---9---9---9---9-----7--7-----------|
E|------------------------------------------|

Parte 5 de 8
   F#m
E|------------------------------------------|
B|-10--10--10--10--10--10--10--10-----------|
G|-x---x---x---x---x---x---x---x------------|
D|-11--11--11--11--11--11--11--11-----------|
A|-9---9---9---9---9---9---9---9------------|
E|------------------------------------------|

Parte 6 de 8
   E
E|------------------------------------------|
B|-10---10-9----9---9---9---9---9-----------|
G|-x----x--x----x---x---x---x---x-----------|
D|-7----7--6----6---6---6---6---6-----------|
A|-x----x--x----x---x---x---x---x-----------|
E|-0----0--0----0---0---0---0---0-----------|

Parte 7 de 8
   D               Bm
E|------------------------------------------|
B|-7---7---7---7---7---7---7---7------------|
G|-7---7---7---7---7---7---7---7------------|
D|-7---7---7---7---9---9---9---9------------|
A|------------------------------------------|
E|------------------------------------------|

Parte 8 de 8
   F#m                      
E|------------------------------------------|
B|-10--10--10--10--10--10--10--10-----------|
G|-x---x---x---x---x---x---x---x------------|
D|-11--11--11--11--11--11--11--11-----------|
A|-9---9---9---9---9---9---9---9------------|
E|------------------------------------------|

     E5      F#5
Que ruja o Leão
                    E5
E que a Terra estremeça
           D5   B5        F#5  
Diante da majestade de Jesus
     E5      F#5
Que ruja o Leão
                    E5
E que a Terra estremeça
           D5   B5        F#5  
Diante da majestade de Jesus

[Solo 2] E5  D5  B5
         F#5  E5  D5  B5

[Tab - Solo 2 - Guitarra 2]

Parte 1 de 3 - 4x                                   
E|----------------------------------------------------|
B|----9-10-12-9-10------------------------------------|
G|-11--------------11~---11~--------------------------|
D|----------------------------------------------------|
A|----------------------------------------------------|
E|----------------------------------------------------|

Parte 2 de 3 - 3x
E|----16-17-19-16-17----------------------------------|
B|-19----------------19~---19~------------------------|
G|----------------------------------------------------|
D|----------------------------------------------------|
A|----------------------------------------------------|
E|----------------------------------------------------|

Parte 3 de 3
E|----16-17-19-16-17----------------------------------|
B|-19----------------19~~/----------------------------|
G|----------------------------------------------------|
D|----------------------------------------------------|
A|----------------------------------------------------|
E|----------------------------------------------------|

[Espontâneo]

       F#5
Ele virá, Oh Oh

Ele virá, Oh Oh

Ele virá, Oh Oh

O Leão da Tribo de Judá

       F#5
Ele virá, Oh Oh

Ele virá, Oh Oh

Ele virá, Oh Oh

O Leão da Tribo de Judá
       F#5
Ele virá, Oh Oh

Ele virá, Oh Oh

Ele virá, Oh Oh

O Leão da Tribo de Judá
       F#5
Ele virá, Oh Oh

Ele virá, Oh Oh

Ele virá, Oh Oh

O Leão da Tribo de Judá

[Refrão Final]

             F#m
Que ruja o Leão
                    E
E que a Terra estremeça
           D    Bm        F#m
Diante da majestade de Jesus
     E5      F#m
Que ruja o Leão
                    E
E que a Terra estremeça
           D    Bm        F#m
Diante da majestade de Jesus
00:00 / 00:00
Outros vídeos desta música
Repetir
Outros vídeos desta música
290.286 exibições
  • Simplificar cifra
    • ½ Tom
    • Am
    • Bbm
    • Bm
    • Cm
    • C#m
    • Dm
    • Ebm
    • Em
    • Fm
    • F#m
    • Gm
    • G#m
  • Adicionar à lista

Afinação da cifra

Afinador online

    0 comentários

    Ver todos os comentários

    Entre para o Cifra Club PRO

    Tenha acesso a benefícios exclusivos no App e no Site

    • Chega de anúncios

    • Mais recursos no app do Afinador

    • Atendimento Prioritário

    • Aumente seu limite de lista

    • Ajude a produzir mais conteúdo

    00:00 / 00:00
    Capítulos
    • Apresentação
    • Tocando a Música
    • Dicas Iniciais
    • Acordes da Música
    • Tocando o Refrão
    • Ensinando o Ritmo e o Refrão da Música
    • Ensinando a Primeira Parte e o Refrão da Guitarra
    • Tocando o Solo da Música
    • Ensinando a Primeira Parte
    • Ensinando o Refrão da Guitarra 2
    • Ensinando o Solo da Guitarra 2
    • Explicando a Ponte da Música
    • Tocando a Ponte, o Refrão e o Solo
    • Ensinando a Ponte e o Solo
    • Encerramento

    Cifra Club Pro

    Aproveite o Cifra Club com benefícios exclusivos e sem anúncios
    Cifra Club Pro
    Aproveite o Cifra Club com benefícios exclusivos e sem anúncios
    OK