Enviar cifraEntrar

Pumped Up Kicks

Foster The People

Cifra: Principal
exibições 299.862
Tom: D#
Intro: Fm  Ab  Eb   Bb

1ª parte (apenas na introdução)

E|-----------------------------------------------------------------------------------
B|-----------------------------------------------------------------------------------
G|-----------------------------------------------------------------------------------
D|------------------1--1--1--------------------------------1--1--1h3p1------3h5p3-5--
A|----------------3-------3-1--1--1--------------------3------------3-1--1---------
E|1--1--1-3-4--4---------------------4-1--1--1-3-4--4------------------------------


2ª parte (essa é usada na introdução e ao longo da música)

E|-----------------------------------------------------------------------------------
B|-----------------------------------------------------------------------------------
G|-----------------------------------------------------------------------------------
D|------------------1--1--1-------------------------------1--1--1h3p1-----------------
A|----------------3-------3-1--1--1--------------------3-----------3-1--1--1h3p1----
E|1--1--1-3-4--4---------------------4-1--1--1-3-4--4---------------------------4-1-


Fm                       Ab
Robert's got a quick hand
      Eb                             Bb
He'll look around the room he won't tell you his plan
Fm                    Ab
Got a rolled cigarette
Eb                             Bb
Hangin' out his mouth, he's a cowboy kid
      Fm                     Ab
Yeah, found a six-shooter gun
       Eb                         Bb
In his dads closet hidden with a box of fun things
Fm                    Ab
I don't even know what
         Eb                         Bb
But he's comin' for you, yeah he's comin for you, hey

Refrão (2x):
Fm                          Ab
All the other kids with the pumped up kicks
             Eb
You'd better run, better run
Bb
Outrun my gun
Fm                          Ab
All the other kids with the pumped up kicks
             Eb
You'd better run, better run
Bb
Faster than my bullet

Fm                    Ab
Daddy works a long day
         Eb                      Bb
He'll be coming home late, he's coming home late
         Fm                    Ab
And he's bringing me a surprise
     Eb                                Bb
Cos' dinner's in the kitchen and it's packed in ice
     Fm                     Ab
I've waited for a long time
    Eb                          Bb
The slight of my hand is now a quick pull trigger
  Fm                      Ab
I reason with my cigarette
             Eb                            Bb
And say your hair's on fire you must have lost your wits, yeah

Refrão (2x):
Fm                          Ab
All the other kids with the pumped up kicks
             Eb
You'd better run, better run
Bb
Outrun my gun
Fm                          Ab
All the other kids with the pumped up kicks
             Eb
You'd better run, better run
Bb
Faster than my bullet

Fm  Ab  Eb  Bb (2x)
(run run run)
Fm  Ab  Eb  Bb  (2x)
(whistle)

Refrão (3x):
Fm                          Ab
All the other kids with the pumped up kicks
             Eb
You'd better run, better run
Bb
Outrun my gun
Fm                          Ab
All the other kids with the pumped up kicks
             Eb
You'd better run, better run
Bb
Faster than my bullet
  • 1
  • 2
  • 3
  • 4
  • 5
  • 6
  • 7
  • 8
  • 9
  • 10
  • 11
  • 12
    Acordes para:
      Composição: Mark FosterColaboração e revisão:

      0 comentários

        mostrar mais comentários

        Conseguiu tocar?

        82tocaram1ainda não

        Grave um vídeo tocando Pumped Up Kicks e mande pra gente!

        00:00 / 00:00
        outros vídeos desta música
        repetirqualidadeautomática
        • automática
        Outro vídeos desta música
          00:00 / 00:00
          automática
          • automática
          Acordes para:violão e guitarra
          dificuldadeexibiçõescontribuições
          1 versão de Tab de baixoexibiçõescontribuições
          fecharplay/pause subir/descer velocidade
            acordes
            fechar
            OK
            Feedback