Cifra Club

Pumped Up Kicks

Foster The People

Cifra: Principal (violão e guitarra)
tom: Fm
[Intro] Fm  Ab  Eb  Bb

[Tab - Solo Intro]

Parte 1 de 8
E|------------------------------------------|
B|------------------------------------------|
G|------------------------------------------|
D|------------------------------------------|
A|------------------1-3---------------------|
E|-1--1--1-3--4--4--------------------------|

Parte 2 de 8
E|------------------------------------------|
B|------------------------------------------|
G|------------------------------------------|
D|-1--1--1----------------------------------|
A|---------3--1--1--1-----------------------|
E|--------------------3-4-------------------|

Parte 3 de 8
E|------------------------------------------|
B|------------------------------------------|
G|------------------------------------------|
D|------------------------------------------|
A|------------------1-3---------------------|
E|-1--1--1-3--4--4--------------------------|

Parte 4 de 8
E|------------------------------------------|
B|------------------------------------------|
G|------------------------------------------|
D|-1--1--1h3p1----------------5-------------|
A|-------------3--1--1--1h3p1---------------|
E|------------------------------------------|

Parte 5 de 8
E|------------------------------------------|
B|------------------------------------------|
G|------------------------------------------|
D|------------------------------------------|
A|------------------1-3---------------------|
E|-1--1--1-3--4--4--------------------------|

Parte 6 de 8
E|------------------------------------------|
B|------------------------------------------|
G|------------------------------------------|
D|-1--1--1h3--------------------------------|
A|-----------3--1--1--1---------------------|
E|-----------------------3------------------|

Parte 7 de 8
E|------------------------------------------|
B|------------------------------------------|
G|------------------------------------------|
D|------------------------------------------|
A|------------------1-3---------------------|
E|-1--1--1-3--4--4--------------------------|

Parte 8 de 8
E|------------------------------------------|
B|------------------------------------------|
G|------------------------------------------|
D|-1--1--1h3p1------------------------------|
A|-------------3--1--1--1h3p1---------------|
E|----------------------------3-1-----------|

[Primeira Parte]

 Fm                       Ab
Robert's got a quick hand
       Eb                 
He'll look around the room 
          Bb
He won't tell you his plan

 Fm                    Ab
Got a rolled cigarette
 Eb                            Bb
Hangin' out his mouth, he's a cowboy kid

       Fm                     Ab
Yeah, found a six-shooter gun
        Eb               
In his dads closet hidden 
        Bb
With a box of fun things

Fm                     Ab
I don't even know what
          Eb            
But he's comin' for you
           Bb
Yeah he's comin for you, hey

[Refrão]

Fm                
All the other kids 
          Ab
With the pumped up kicks
              Eb
You'd better run, better run
Bb
Outrun my gun

Fm                
All the other kids
          Ab
With the pumped up kicks
              Eb
You'd better run, better run
 Bb
Faster than my bullet

Fm                
All the other kids 
          Ab
With the pumped up kicks
              Eb
You'd better run, better run
Bb
Outrun my gun

Fm                
All the other kids
          Ab
With the pumped up kicks
              Eb
You'd better run, better run
 Bb
Faster than my bullet

[Segunda Parte]

 Fm                    Ab
Daddy works a long day
          Eb             
He'll be coming home late
      Bb
He's coming home late

           Fm               Ab
And he's bringing me a surprise
      Eb                    
Cos' dinner's in the kitchen 
          Bb
And it's packed in ice

      Fm                    Ab
I've waited for a long time
      Eb                
The slight of my hand is now
    Bb
A quick pull trigger

   Fm                      Ab
I reason with my cigarette
              Eb            
And say your hair's on fire 
               Bb
You must have lost your wits, yeah

[Refrão]

Fm                
All the other kids 
          Ab
With the pumped up kicks
              Eb
You'd better run, better run
Bb
Outrun my gun

Fm                
All the other kids 
          Ab
With the pumped up kicks
              Eb
You'd better run, better run
 Bb
Faster than my bullet

Fm                
All the other kids 
          Ab
With the pumped up kicks
              Eb
You'd better run, better run
Bb
Outrun my gun

Fm               
All the other kids 
          Ab
With the pumped up kicks
             Eb
You'd better run, better run
 Bb
Faster than my bullet

[Ponte] 

 Fm             Ab  
Run run run run 
 Eb             Bb 
Run run run run 
 Fm             Ab  
Run run run run 
 Eb             Bb 
Run run run run 

( Fm  Ab  Eb  Bb )
( Fm  Ab  Eb  Bb )

[Refrão Final]

Fm                
All the other kids 
          Ab
With the pumped up kicks
              Eb
You'd better run, better run
Bb
Outrun my gun

Fm                
All the other kids 
          Ab
With the pumped up kicks
              Eb
You'd better run, better run
 Bb
Faster than my bullet

Fm                
All the other kids 
          Ab
With the pumped up kicks
              Eb
You'd better run, better run
Bb
Outrun my gun

Fm               
All the other kids 
          Ab
With the pumped up kicks
             Eb
You'd better run, better run
 Bb
Faster than my bullet

Fm                
All the other kids 
          Ab
With the pumped up kicks
              Eb
You'd better run, better run
Bb
Outrun my gun

Fm                
All the other kids 
          Ab
With the pumped up kicks
              Eb
You'd better run, better run
 Bb
Faster than my bullet

Fm                
All the other kids 
          Ab
With the pumped up kicks
              Eb
You'd better run, better run
Bb
Outrun my gun

Fm               
All the other kids 
          Ab
With the pumped up kicks
             Eb
You'd better run, better run
 Bb                   Fm
Faster than my bullet 
00:00 / 00:00
Outros vídeos desta música
Repetir
Outros vídeos desta música
Composição de Mark Foster
708.011 exibições
  • Simplificar cifra
    • ½ Tom
    • Am
    • Bbm
    • Bm
    • Cm
    • C#m
    • Dm
    • Ebm
    • Em
    • Fm
    • F#m
    • Gm
    • G#m
  • Adicionar à lista

    0 comentários

    Ver todos os comentários

    Entre para oCifra Club PRO

    Tenha acesso a benefícios exclusivos no App e no Site

    • Chega de anúncios

    • Prioridade de compra em lançamentos

    • Mais recursos no app do Afinador

    • Atendimento Prioritário

    • Descontos nos produtos Cifra Club

    • Ajude a produzir mais conteúdo

    00:00 / 00:00

    Cifra Club Pro

    Aproveite o Cifra Club com benefícios exclusivos e sem anúncios
    Cifra Club Pro
    Aproveite o Cifra Club com benefícios exclusivos e sem anúncios
    OK