Cifra Club

Advance Romance

Frank Zappa

Cifra: Principal (violão e guitarra)
Selo Cifra Club: esta cifra foi revisada para atender aos critérios oficiais da nossa Equipe de Qualidade.
tom: Am
E|E|-------------------------------------------------------------------------------||
                            Advance Romance - Frank Zappa
E|E|-------------------------------------------------------------------------------||
Tabbed by: Jacque

Tuning: Standard

Because this track is improvised live for the most part, this tab is a sort of "ballpark" for
the song.

0:00

E|-3------------------------------|
B|-3------------------------------|
G|-0---/12--10--------------------|
D|-0-----------12-10-8--12--8b----|
A|-2------------------------------|
E|-3------------------------------|

0:13

E|---------------------------------------------------------------------------|
B|------------------------------------11-8-----------------------------------|
G|---------------------------------------------------------------------------|
D|------------9-10-12-----10-9-------------10-9--10-9--9h10p9p0--/3-3-/8\5---|
A|------------------------------10-------------------------------------------|
E|-12\-----------------------------------------------------------------------|

0:24

E|---------------------------------------------------------------------------|
B|------------------------------------11-8-----------------------------------|
G|---------------------------------------------------------------------------|
D|------------9-10-12-----10-9-------------10-9--10-9--9h10p9p0--/3-3-/8\5---|
A|------------------------------10-------------------------------------------|
E|-12\-----------------------------------------------------------------------|

E|-------------------------------------------|
B|-------------------------------------------|
G|-------------------------------------------|
D|--------------10-12-10-------10------------|
A|--------10-13----------13-10----13-10\8~---|
E|--17\\-------------------------------------|

0:42

E|------------------|
B|-5-----5-5\3---3--|
G|-4-----4-4\2---2--|
D|-2----------------|
A|------------------|
E|------------------|

0:48

E|---------------------------------------------------------------------------|
B|------------------------------------11-8-----------------------------------|
G|---------------------------------------------------------------------------|
D|------------9-10-12-----10-9-------------10-9--10-9--9h10p9p0--/3-3-/8\5---|
A|------------------------------10-------------------------------------------|
E|-12\-----------------------------------------------------------------------|


1:07

E|--------------------------------------------------------------------|
B|--------------------------------------------------------------------|
G|-------------------15-----------------------------------------------|
D|-9--10-12--10-9-5------8-8-5~-----------10-12-------10--------------|
A|----------------------------------10-13-------13-10----13-10-8~-----|
E|--------------------------------------------------------------------|
Outros vídeos desta música
    8 exibições
      • ½ Tom
      • Am
      • Bbm
      • Bm
      • Cm
      • C#m
      • Dm
      • Ebm
      • Em
      • Fm
      • F#m
      • Gm
      • G#m
    • Adicionar à lista

    Afinação da cifra

    Afinador online

      0 comentários

      Ver todos os comentários

      Entre para o Cifra Club PRO

      Tenha acesso a benefícios exclusivos no App e no Site

      • Chega de anúncios

      • Mais recursos no app do Afinador

      • Atendimento Prioritário

      • Aumente seu limite de lista

      • Ajude a produzir mais conteúdo

      Cifra Club Pro

      Aproveite o Cifra Club com benefícios exclusivos e sem anúncios
      Cifra Club Pro
      Aproveite o Cifra Club com benefícios exclusivos e sem anúncios
      OK