Cifra Club

Brown Shoes Dont Make It

Frank Zappa

Cifra: Principal (violão e guitarra)
Selo Cifra Club: esta cifra foi revisada para atender aos critérios oficiais da nossa Equipe de Qualidade.
tom: E
E|--3-| |--3-|    |--3-|       |--3-|
     H        Q    Q    E     Q    E    Q    E  Q    Q    E   
E||E|---------------|---------|E|---------------|E|---------------|---|
B||E|---------------|---------|----------4g5----4--L----L----L--|
G||E|---------------|---------|----------4g6----4--L----L----L--|
D||E|---------------|---------|E|---------------|E|---------------|---|
A||E|---------------|---------|--4E|---------------|E|---------------||
E||E|---------------|-0----2--|-------2E|---------------|--0----2--|


E|--3-| |--3-|       |--3-|     |--3-|    |--3-|       |--3-|
  Q    E    Q    E  Q    Q    E     Q    E    Q    E  Q    Q    E   
E|E|---------------|E|---------------|---|E|---------------|E|---------------|---|
B|----------4| g5----4--L----L----L--|----------4g5----4--L----L----L--|
G|----------4| g6----4--L----L----L--|----------4g6----4--L----L----L--|
D|E|---------------|E|---------------|---|E|---------------|E|---------------|---|
A|--4E|---------------|E|---------------||--4E|---------------|E|---------------||
E|-------2E|---------------|--0----2--|-------2E|---------------|--0----2--|

E|--3-| |--3-|       |--3-|     |--3-|    |--3-|       |--3-|
  Q    E    Q    E  Q    Q    E     Q    E    Q    E  Q    Q    E   
E|E|---------------|E|---------------|---|E|---------------|E|---------------|---|
B|----------4| g5----4--L----L----L--|----------4g5----4--L----L----L--|
G|----------4| g6----4--L----L----L--|----------4g6----4--L----L----L--|
D|E|---------------|E|---------------|---|E|---------------|E|---------------|---|
A|--4E|---------------|E|---------------||--4E|---------------|E|---------------||
E|-------2E|---------------|--0----2--|-------2E|---------------|--0----2--|

E|--3-| |--3-|       |--3-|     |--3-|    |--3-|       |--3-|
  Q    E    Q    E  Q    Q    E     Q    E    Q    E  Q    Q    E   
E|E|---------------|E|---------------|---|E|---------------|E|---------------|---|
B|----------4| g5----4--L----L----L--|----------4g5----4--L----L----L--|
G|----------4| g6----4--L----L----L--|----------4g6----4--L----L----L--|
D|E|---------------|E|---------------|---|E|---------------|E|---------------|---|
A|--4E|---------------|E|---------------||--4E|---------------|E|---------------||
E|-------2E|---------------|--0----2--|-------2E|---------------|--0----2--|

E|--3-| |--3-|       |--3-|     |--3-|    |--3-|       |--3-|
  Q    E    Q    E  Q    Q    E     Q    E    Q    E  Q    Q    E   
E|E|---------------|E|---------------|---|E|---------------|E|---------------|---|
B|----------4| g5----4--L----L----L--|----------4g5----4--L----L----L--|
G|----------4| g6----4--L----L----L--|----------4g6----4--L----L----L--|
D|E|---------------|E|---------------|---|E|---------------|E|---------------|---|
A|--4E|---------------|E|---------------||--4E|---------------|E|---------------||
E|-------2E|---------------|--0----2--|-------2E|---------------|--0----2--|

E|--3-| |--3-|       |--3-|     |--3-|    |--3-|       |--3-|        
  Q    E    Q    E  Q    Q    E     Q    E    Q    E  Q    Q    E           
E|E|---------------|E|---------------|---|E|---------------|E|---------------|---|-------|
B|----------4| g5----4--L----L----L--|----------4g5----4--L----L----L--|-------|
G|----------4| g6----4--L----L----L--|----------4g6----4--L----L----L--|-------|
D|E|---------------|E|---------------|---|E|---------------|E|---------------|---|-------|
A|--4E|---------------|E|---------------||--4E|---------------|E|---------------||-------|
E|-------2E|---------------|--0----2--|-------2E|---------------|--0----2--|-------|

E|-------|-------|-------|-------|-------|-------|-------|-------|-------|-------|
B|-------|-------|-------|-------|-------|-------|-------|-------|-------|-------|
G|-------|-------|-------|-------|-------|-------|-------|-------|-------|-------|
D|-------|-------|-------|-------|-------|-------|-------|-------|-------|-------|
A|-------|-------|-------|-------|-------|-------|-------|-------|-------|-------|
E|-------|-------|-------|-------|-------|-------|-------|-------|-------|-------|

  E  E  E  E  E  E  Q       E  E  E  E  E  E  Q       E  E  E  E  Q    Q     
E|E|---------------|----------|E|---------------|----------|-----------3--| L----5----|
B|--8--6--8--6--8--6--| L----|--5--3--5--3--5--3--L----|--3--5--6E|---------------||
G|E|---------------|----------|E|---------------|----------|E|---------------|---------|
D|E|---------------|----------|E|---------------|----------|E|---------------|---------|
A|E|---------------|----------|E|---------------|----------|E|---------------|---------|
E|E|---------------|----------|E|---------------|----------|E|---------------|---------|

E|--3-| |--3-|    |--3-|       |--3-|
  Q    Q    Q    Q    E     Q    E    Q    E  Q    Q    E   
E|--1---------1------------|E|---------------|E|---------------|---|
B|-------1E|---------------|--|----------4| g5----4--L----L----L--|
G|E|---------------|----------|----------4| g6----4--L----L----L--|
D|E|---------------|----------|E|---------------|E|---------------|---|
A|E|---------------|----------|--4E|---------------|E|---------------||
E|E|---------------|--0----2--|-------2E|---------------|--0----2--|

E|--3-| |--3-|       |--3-|     |--3-|    |--3-|       |--3-|
  Q    E    Q    E  Q    Q    E     Q    E    Q    E  Q    Q    E   
E|E|---------------|E|---------------|---|E|---------------|E|---------------|---|
B|----------4| g5----4--L----L----L--|----------4g5----4--L----L----L--|
G|----------4| g6----4--L----L----L--|----------4g6----4--L----L----L--|
D|E|---------------|E|---------------|---|E|---------------|E|---------------|---|
A|--4E|---------------|E|---------------||--4E|---------------|E|---------------||
E|-------2E|---------------|--0----2--|-------2E|---------------|--0----2--|

E|--3-| |--3-|       |--3-|     |--3-|    |--3-|       |--3-|
  Q    E    Q    E  Q    Q    E     Q    E    Q    E  Q    Q    E   
E|E|---------------|E|---------------|---|E|---------------|E|---------------|---|
B|----------4| g5----4--L----L----L--|----------4g5----4--L----L----L--|
G|----------4| g6----4--L----L----L--|----------4g6----4--L----L----L--|
D|E|---------------|E|---------------|---|E|---------------|E|---------------|---|
A|--4E|---------------|E|---------------||--4E|---------------|E|---------------||
E|-------2E|---------------|--0----2--|-------2E|---------------|--0----2--|

E|--3-| |--3-|       |--3-|     |--3-|    |--3-|       |--3-|
  Q    E    Q    E  Q    Q    E     Q    E    Q    E  Q    Q    E   
E|E|---------------|E|---------------|---|E|---------------|E|---------------|---|
B|----------4| g5----4--L----L----L--|----------4g5----4--L----L----L--|
G|----------4| g6----4--L----L----L--|----------4g6----4--L----L----L--|
D|E|---------------|E|---------------|---|E|---------------|E|---------------|---|
A|--4E|---------------|E|---------------||--4E|---------------|E|---------------||
E|-------2E|---------------|--0----2--|-------2E|---------------|--0----2--|

E|--3-| |--3-|       |--3-|     |--3-|    |--3-|       |--3-|
  Q    E    Q    E  Q    Q    E     Q    E    Q    E  Q    Q    E   
E|E|---------------|E|---------------|---|E|---------------|E|---------------|---|
B|----------4| g5----4--L----L----L--|----------4g5----4--L----L----L--|
G|----------4| g6----4--L----L----L--|----------4g6----4--L----L----L--|
D|E|---------------|E|---------------|---|E|---------------|E|---------------|---|
A|--4E|---------------|E|---------------||--4E|---------------|E|---------------||
E|-------2E|---------------|--0----2--|-------2E|---------------|--0----2--|

E|--3-| |--3-|       |--3-|     |--3-|    |--3-|       |--3-|
  Q    E    Q    E  Q    Q    E     Q    E    Q    E  Q    Q    E   
E|E|---------------|E|---------------|---|E|---------------|E|---------------|---|
B|----------4| g5----4--L----L----L--|----------4g5----4--L----L----L--|
G|----------4| g6----4--L----L----L--|----------4g6----4--L----L----L--|
D|E|---------------|E|---------------|---|E|---------------|E|---------------|---|
A|--4E|---------------|E|---------------||--4E|---------------|E|---------------||
E|-------2E|---------------|--0----2--|-------2E|---------------|--0----2--|

E|--3-| |--3-|       |--3-|     |--3-|    |--3-|       |--3-|
  Q    E    Q    E  Q    Q    E     Q    E    Q    E  Q    Q    E   
E|E|---------------|E|---------------|---|E|---------------|E|---------------|---|
B|----------4| g5----4--L----L----L--|----------4g5----4--L----L----L--|
G|----------4| g6----4--L----L----L--|----------4g6----4--L----L----L--|
D|E|---------------|E|---------------|---|E|---------------|E|---------------|---|
A|--4E|---------------|E|---------------||--4E|---------------|E|---------------||
E|-------2E|---------------|--0----2--|-------2E|---------------|--0----2--|

E|--3-| |--3-|       |--3-|     |--3-|    |--3-|       |--3-|
  Q    E    Q    E  Q    Q    E     Q    E    Q    E  Q    Q    E   
E|E|---------------|E|---------------|---|E|---------------|E|---------------|---|
B|----------4| g5----4--L----L----L--|----------4g5----4--L----L----L--|
G|----------4| g6----4--L----L----L--|----------4g6----4--L----L----L--|
D|E|---------------|E|---------------|---|E|---------------|E|---------------|---|
A|--4E|---------------|E|---------------||--4E|---------------|E|---------------||
E|-------2E|---------------|--0----2--|-------2E|---------------|--0----2--|

E|--3-| |--3-|       |--3-|
  Q    E    Q    E  Q    Q    E     W                                 
E|E|---------------|E|---------------|---|E|---------------|----|-------|-------|
B|----------4| g5----4--L----L----L--|E|---------------|----|-------|-------|
G|----------4| g6----4--L----L----L--|--3E|---------------|-|-------|-------|
D|E|---------------|E|---------------|---|--0E|---------------|-|-------|-------|
A|--4E|---------------|E|---------------||--2E|---------------|-|-------|-------|
E|-------2E|---------------|--0----2--|--1E|---------------|-|-------|-------|

  H        Q       H.              H        Q       H.            
E|E|---------------|-|E|---------------||E|---------------|-|E|---------------||
B|E|---------------|-|E|---------------||E|---------------|-|E|---------------||
G|E|---------------|-|E|---------------||E|---------------|-|E|---------------||
D|-----------0----|--0------------|-----------0----|--0------------|
A|--2--------6----|--2------------|--2--------6----|--2------------|
E|--6--------| L----|--6------------|--6--------L----|--6------------|

  H        Q       H.              H        Q       H.            
E|E|---------------|-|E|---------------||E|---------------|-|E|---------------||
B|E|---------------|-|E|---------------||E|---------------|-|E|---------------||
G|E|---------------|-|E|---------------||E|---------------|-|E|---------------||
D|-----------0----|--0------------|-----------0----|--0------------|
A|--2--------6----|--2------------|--2--------6----|--2------------|
E|--6--------| L----|--6------------|--6--------L----|--6------------|

  H        Q       H.              H        Q       H.            
E|E|---------------|-|E|---------------||E|---------------|-|E|---------------||
B|E|---------------|-|E|---------------||E|---------------|-|E|---------------||
G|E|---------------|-|E|---------------||E|---------------|-|E|---------------||
D|-----------0----|--0------------|-----------0----|--0------------|
A|--2--------6----|--2------------|--2--------6----|--2------------|
E|--6--------| L----|--6------------|--6--------L----|--6------------|

  H        Q       H        Q       H.              H.            
E|E|---------------|-|E|---------------|-|E|---------------||E|---------------||
B|E|---------------|-|E|---------------|-|E|---------------||E|---------------||
G|E|---------------|-|E|---------------|-|E|---------------||E|---------------||
D|-----------0----|--0-------------|--6------------|--6------------|
A|--2--------6----|--2-------------|--4------------|--4------------|
E|--6--------| L----|--6-------------|E|---------------||E|---------------||

  H.              H.              E  E  Q    Q                             
E|E|---------------||E|---------------||E|---------------|---|-------|-------|-------|
B|E|---------------||E|---------------||E|---------------|---|-------|-------|-------|
G|E|---------------||E|---------------||E|---------------|---|-------|-------|-------|
D|--6------------|--6------------|E|---------------|---|-------|-------|-------|
A|--4------------|--4------------|--5E|---------------||-------|-------|-------|
E|E|---------------||E|---------------||E|---------------|---|-------|-------|-------|

E|-------|-------|-------|-------|-------|-------|-------|-------|-------|-------|
B|-------|-------|-------|-------|-------|-------|-------|-------|-------|-------|
G|-------|-------|-------|-------|-------|-------|-------|-------|-------|-------|
D|-------|-------|-------|-------|-------|-------|-------|-------|-------|-------|
A|-------|-------|-------|-------|-------|-------|-------|-------|-------|-------|
E|-------|-------|-------|-------|-------|-------|-------|-------|-------|-------|

E|-------|-------|-------|-------|-------|-------|-------|-------|-------|-------|
B|-------|-------|-------|-------|-------|-------|-------|-------|-------|-------|
G|-------|-------|-------|-------|-------|-------|-------|-------|-------|-------|
D|-------|-------|-------|-------|-------|-------|-------|-------|-------|-------|
A|-------|-------|-------|-------|-------|-------|-------|-------|-------|-------|
E|-------|-------|-------|-------|-------|-------|-------|-------|-------|-------|

E|-------|-------|-------|-------|-------|-------|-------|
B|-------|-------|-------|-------|-------|-------|-------|
G|-------|-------|-------|-------|-------|-------|-------|
D|-------|-------|-------|-------|-------|-------|-------|
A|-------|-------|-------|-------|-------|-------|-------|
E|-------|-------|-------|-------|-------|-------|-------|

E|--3-| |--3-|  |--3-|  |--3-|  |--3-|
  H        Q    Q    E     Q    E  Q    E  Q    E  Q    E   
E|E|---------------|------7--|--| L----7--5----3----------1----3--|
B|E|---------------|------0--|--| L----0----------6----3----------|
G|E|---------------|------0--|--| L----0--2----0E|---------------|0--|
D|E|---------------|------0--|--| L----0--3----0--3----0--3----0--|
A|E|---------------|---------|----------3----2--3----2--3----2--|
E|E|---------------|---------|E|---------------|---5----3--5-------|

E|--3-| |--3-|  |--3-|  |--3-|  |--3-|  ---   ---   --- 
  H        Q    Q    E     Q    E  Q    E  Q    E  Q    E                     
E|E|---------------|------7--|--| L----7--5----3----------1----3--|-----|-----|-----|
B|E|---------------|------0--|--| L----0----------6----3----------|-----|-----|-----|
G|E|---------------|------0--|--| L----0--2----0E|---------------|0--|-----|-----|-----|
D|E|---------------|------0--|--| L----0--3----0--3----0--3----0--|-----|-----|-----|
A|E|---------------|---------|----------3----2--3----2--3----2--|-----|-----|-----|
E|E|---------------|---------|E|---------------|---5----3--5-------|-----|-----|-----|


  ---                  |--3--|                                                  
        Q    Q    Q    E  E  E     E  E  E  E  E  E  E  E     W                 
E|-----|E|---------------|-----------|E|---------------|-----------|E|---------------|----|
B|-----|E|---------------|--------5--|--2--------2--| L--------2--|E|---------------|----|
G|-----|E|---------------|-----6-----|-----1--3--------1--3-----|E|---------------|----|
D|-----|E|---------------|--6--------|E|---------------|-----------|E|---------------|----|
A|-----|E|---------------|-----------|E|---------------|-----------|E|---------------|----|
E|-----|E|---------------|-----------|E|---------------|-----------|E|---------------|----|

  E  E  E  E  E  E  E  E     W                   E  E  E  E  E  E  E  E   
E|E|---------------|-----------|E|---------------|----|E|---------------|-----------|
B|--2--------2--| L--------2--|E|---------------|----|E|---------------|-----------|
G|-----1--3--------1--3-----|E|---------------|----|--3-----0--3--| L-----0--3--|
D|E|---------------|-----------|E|---------------|----|-----3-----------3--------|
A|E|---------------|-----------|E|---------------|----|E|---------------|-----------|
E|E|---------------|-----------|E|---------------|----|E|---------------|-----------|

  E  E  E  E  E  E  E  E     E  E  E  E  E  E  E  E     E  E  Q    H         
E|E|---------------|-----------|E|---------------|-----------|E|---------------|-------|
B|E|---------------|-----------|E|---------------|-----------|E|---------------|-------|
G|--3-----0--3--| L-----0--3--|--3-----0--3--L-----0--3--|--3E|---------------|----|
D|-----3-----------3--------|-----3-----------3--------|E|---------------|-------|
A|E|---------------|-----------|E|---------------|-----------|E|---------------|-------|
E|E|---------------|-----------|E|---------------|-----------|E|---------------|-------|

E|------|-----------|-----------|-----------|-----------|-----------|-----------|
B|------|-----------|-----------|-----------|-----------|-----------|-----------|
G|------|-----------|-----------|-----------|-----------|-----------|-----------|
D|------|-----------|-----------|-----------|-----------|-----------|-----------|
A|------|-----------|-----------|-----------|-----------|-----------|-----------|
E|------|-----------|-----------|-----------|-----------|-----------|-----------|

E|-----------|-----------|-----------|-----------|-----------|-----------|
B|-----------|-----------|-----------|-----------|-----------|-----------|
G|-----------|-----------|-----------|-----------|-----------|-----------|
D|-----------|-----------|-----------|-----------|-----------|-----------|
A|-----------|-----------|-----------|-----------|-----------|-----------|
E|-----------|-----------|-----------|-----------|-----------|-----------|

E|-----------|-----------|-----------|-----------|-----------|-----------|
B|-----------|-----------|-----------|-----------|-----------|-----------|
G|-----------|-----------|-----------|-----------|-----------|-----------|
D|-----------|-----------|-----------|-----------|-----------|-----------|
A|-----------|-----------|-----------|-----------|-----------|-----------|
E|-----------|-----------|-----------|-----------|-----------|-----------|

E|-----------|-----------|-----------|-----------|-----------|-----------|
B|-----------|-----------|-----------|-----------|-----------|-----------|
G|-----------|-----------|-----------|-----------|-----------|-----------|
D|-----------|-----------|-----------|-----------|-----------|-----------|
A|-----------|-----------|-----------|-----------|-----------|-----------|
E|-----------|-----------|-----------|-----------|-----------|-----------|

E|-----------|-----------|-----------|-----------|-----------|-----------|
B|-----------|-----------|-----------|-----------|-----------|-----------|
G|-----------|-----------|-----------|-----------|-----------|-----------|
D|-----------|-----------|-----------|-----------|-----------|-----------|
A|-----------|-----------|-----------|-----------|-----------|-----------|
E|-----------|-----------|-----------|-----------|-----------|-----------|

E|-----------|-----------|-----------|-----------|-----------|-----------|
B|-----------|-----------|-----------|-----------|-----------|-----------|
G|-----------|-----------|-----------|-----------|-----------|-----------|
D|-----------|-----------|-----------|-----------|-----------|-----------|
A|-----------|-----------|-----------|-----------|-----------|-----------|
E|-----------|-----------|-----------|-----------|-----------|-----------|

E|-----------|-----------|-----------|-----------|-----------|-----------|
B|-----------|-----------|-----------|-----------|-----------|-----------|
G|-----------|-----------|-----------|-----------|-----------|-----------|
D|-----------|-----------|-----------|-----------|-----------|-----------|
A|-----------|-----------|-----------|-----------|-----------|-----------|
E|-----------|-----------|-----------|-----------|-----------|-----------|

E|-----------|-----------|-----------|-----------|-----------|-----------|
B|-----------|-----------|-----------|-----------|-----------|-----------|
G|-----------|-----------|-----------|-----------|-----------|-----------|
D|-----------|-----------|-----------|-----------|-----------|-----------|
A|-----------|-----------|-----------|-----------|-----------|-----------|
E|-----------|-----------|-----------|-----------|-----------|-----------|

E|-----------|-----------|-----------|-----------|-----------|-----------|
B|-----------|-----------|-----------|-----------|-----------|-----------|
G|-----------|-----------|-----------|-----------|-----------|-----------|
D|-----------|-----------|-----------|-----------|-----------|-----------|
A|-----------|-----------|-----------|-----------|-----------|-----------|
E|-----------|-----------|-----------|-----------|-----------|-----------|

E|-----------|-----------|-----------|-----------|-----------|-----------|
B|-----------|-----------|-----------|-----------|-----------|-----------|
G|-----------|-----------|-----------|-----------|-----------|-----------|
D|-----------|-----------|-----------|-----------|-----------|-----------|
A|-----------|-----------|-----------|-----------|-----------|-----------|
E|-----------|-----------|-----------|-----------|-----------|-----------|

E|-----------|------|------|------|------|------|------|------|------|------|
B|-----------|------|------|------|------|------|------|------|------|------|
G|-----------|------|------|------|------|------|------|------|------|------|
D|-----------|------|------|------|------|------|------|------|------|------|
A|-----------|------|------|------|------|------|------|------|------|------|
E|-----------|------|------|------|------|------|------|------|------|------|

E|------|------|------|------|------|------|------|------|------|------|------|
B|------|------|------|------|------|------|------|------|------|------|------|
G|------|------|------|------|------|------|------|------|------|------|------|
D|------|------|------|------|------|------|------|------|------|------|------|
A|------|------|------|------|------|------|------|------|------|------|------|
E|------|------|------|------|------|------|------|------|------|------|------|

E|------|------|------|------|------|------|------|------|------|------|------|
B|------|------|------|------|------|------|------|------|------|------|------|
G|------|------|------|------|------|------|------|------|------|------|------|
D|------|------|------|------|------|------|------|------|------|------|------|
A|------|------|------|------|------|------|------|------|------|------|------|
E|------|------|------|------|------|------|------|------|------|------|------|

E|------| |
B|------| |
G|------| |
D|------| |
A|------| |
E|------| |










clean guitar



E||-------|-------|-------|-------|-------|-------|-------|-------|-------|
B||-------|-------|-------|-------|-------|-------|-------|-------|-------|
G||-------|-------|-------|-------|-------|-------|-------|-------|-------|
D||-------|-------|-------|-------|-------|-------|-------|-------|-------|
A||-------|-------|-------|-------|-------|-------|-------|-------|-------|
E||-------|-------|-------|-------|-------|-------|-------|-------|-------|


E|-------|-------|-------|-------|-------|-------|-------|-------|-------|-------|
B|-------|-------|-------|-------|-------|-------|-------|-------|-------|-------|
G|-------|-------|-------|-------|-------|-------|-------|-------|-------|-------|
D|-------|-------|-------|-------|-------|-------|-------|-------|-------|-------|
A|-------|-------|-------|-------|-------|-------|-------|-------|-------|-------|
E|-------|-------|-------|-------|-------|-------|-------|-------|-------|-------|

E|-------|-------|-------|-------|-------|-------|-------|-------|-------|-------|
B|-------|-------|-------|-------|-------|-------|-------|-------|-------|-------|
G|-------|-------|-------|-------|-------|-------|-------|-------|-------|-------|
D|-------|-------|-------|-------|-------|-------|-------|-------|-------|-------|
A|-------|-------|-------|-------|-------|-------|-------|-------|-------|-------|
E|-------|-------|-------|-------|-------|-------|-------|-------|-------|-------|

E|-------|-------|-------|-------|-------|-------|-------|-------|-------|-------|
B|-------|-------|-------|-------|-------|-------|-------|-------|-------|-------|
G|-------|-------|-------|-------|-------|-------|-------|-------|-------|-------|
D|-------|-------|-------|-------|-------|-------|-------|-------|-------|-------|
A|-------|-------|-------|-------|-------|-------|-------|-------|-------|-------|
E|-------|-------|-------|-------|-------|-------|-------|-------|-------|-------|

E|-------|-------|-------|-------|-------|-------|-------|-------|-------|-------|
B|-------|-------|-------|-------|-------|-------|-------|-------|-------|-------|
G|-------|-------|-------|-------|-------|-------|-------|-------|-------|-------|
D|-------|-------|-------|-------|-------|-------|-------|-------|-------|-------|
A|-------|-------|-------|-------|-------|-------|-------|-------|-------|-------|
E|-------|-------|-------|-------|-------|-------|-------|-------|-------|-------|

E|-------|-------|-------|-------|-------|-------|-------|-------|-------|-------|
B|-------|-------|-------|-------|-------|-------|-------|-------|-------|-------|
G|-------|-------|-------|-------|-------|-------|-------|-------|-------|-------|
D|-------|-------|-------|-------|-------|-------|-------|-------|-------|-------|
A|-------|-------|-------|-------|-------|-------|-------|-------|-------|-------|
E|-------|-------|-------|-------|-------|-------|-------|-------|-------|-------|


          ^                               ^                             
          H.              H.              H.              H.            
E|-------|--7------------|--| L------------|--7------------|--L------------|
B|-------|--7------------|--| L------------|--7------------|--L------------|
G|-------|--8------------|--| L------------|--8------------|--L------------|
D|-------|--9------------|--| L------------|--9------------|--L------------|
A|-------|--9------------|--| L------------|--9------------|--L------------|
E|-------|--7------------|--| L------------|--7------------|--L------------|


  ^                               ^                               ^             
  H.              H.              H.              H.              H.            
E|--7------------|--| L------------|--7------------|--L------------|--7------------|
B|--7------------|--| L------------|--7------------|--L------------|--7------------|
G|--8------------|--| L------------|--8------------|--L------------|--8------------|
D|--9------------|--| L------------|--9------------|--L------------|--9------------|
A|--9------------|--| L------------|--9------------|--L------------|--9------------|
E|--7------------|--| L------------|--7------------|--L------------|--7------------|


                  ^                                                         
  H.              W                                                         
--L------------|--7E|---------------|-|-------|-------|-------|-------|-------|
--L------------|--7E|---------------|-|-------|-------|-------|-------|-------|
--L------------|--8E|---------------|-|-------|-------|-------|-------|-------|
--L------------|--9E|---------------|-|-------|-------|-------|-------|-------|
--L------------|--9E|---------------|-|-------|-------|-------|-------|-------|
--L------------|--7E|---------------|-|-------|-------|-------|-------|-------|


E|-------|-------|-------|-------|-------|-------|-------|-------|-------|-------|
B|-------|-------|-------|-------|-------|-------|-------|-------|-------|-------|
G|-------|-------|-------|-------|-------|-------|-------|-------|-------|-------|
D|-------|-------|-------|-------|-------|-------|-------|-------|-------|-------|
A|-------|-------|-------|-------|-------|-------|-------|-------|-------|-------|
E|-------|-------|-------|-------|-------|-------|-------|-------|-------|-------|

E|-------|-------|-------|-------|-------|-------|-------|-------|-------|-------|
B|-------|-------|-------|-------|-------|-------|-------|-------|-------|-------|
G|-------|-------|-------|-------|-------|-------|-------|-------|-------|-------|
D|-------|-------|-------|-------|-------|-------|-------|-------|-------|-------|
A|-------|-------|-------|-------|-------|-------|-------|-------|-------|-------|
E|-------|-------|-------|-------|-------|-------|-------|-------|-------|-------|

E|-------|-------|-------|-------|-------|-------|-------|-------|-------|-------|
B|-------|-------|-------|-------|-------|-------|-------|-------|-------|-------|
G|-------|-------|-------|-------|-------|-------|-------|-------|-------|-------|
D|-------|-------|-------|-------|-------|-------|-------|-------|-------|-------|
A|-------|-------|-------|-------|-------|-------|-------|-------|-------|-------|
E|-------|-------|-------|-------|-------|-------|-------|-------|-------|-------|


                                                  ^      ^       
                                                  Q.     Q.      
E|-------|-------|-------|-------|-------|-------|E|---------------|-|
B|-------|-------|-------|-------|-------|-------|--1------3------|
G|-------|-------|-------|-------|-------|-------|--0------2------|
D|-------|-------|-------|-------|-------|-------|--2------4------|
A|-------|-------|-------|-------|-------|-------|E|---------------|-|
E|-------|-------|-------|-------|-------|-------|E|---------------|-|

  E  E  E  E  E  E     E  E  E  Q    E     E  E  E  E  E   E   
E|E|---------------|-----|E|---------------|----|E|---------------|------|
B|--1--1--1--1-----0--|E|---------------|----|E|---------------|------|
G|--0--0--0--0--2--0--|--2--2--2--2----2--|--4--4--4--4--5---7--|
D|--2--2--2--2--3--2--|--3--3--3--3----3--|--5--5--5--5--7---9--|
A|--------------5-----|--5--5--5--5----5--|--7--7--7--7--8--10--|
E|E|---------------|-----|E|---------------|----|E|---------------|------|

  E  E  E  E  E  E     E  E  E  Q    E     E  E  E  Q    E   
E|E|---------------|-----|E|---------------|----|E|---------------|----|
B|E|---------------|-----|E|---------------|----|E|---------------|----|
G|--5--5--5--5--4--2--|--4--4--4--4----0--|--2--2--2--2-------|
D|--7--7--7--7--5--3--|--5--5--5--5----2--|--3--3--3--3----5--|
A|--8--8--8--8--7--5--|--7--7--7--7----3--|--5--5--5--5----7--|
E|E|---------------|-----|E|---------------|----|E|---------------|-8--|

  E  E  E   E   E   E      E   E   E  Q.        E  E  E  E  S S E   
E|E|---------------|--------|E|---------------|------|--4--4--4--4--4-4-4--|
B|E|---------------|--------|E|---------------|------|--5--5--5--5--5-| L-5--|
G|E|---------------|--------|--------------9------|--4--4--4--4--4-| L-4--|
D|--8--8--8--10--10--10--|--12--12--12--9------|E|---------------|------|
A|--8--8--8--10--10--10--|--12--12--12--7------|E|---------------|------|
E|--6--6--6---8---8---8--|--10--10--10---------|E|---------------|------|

  E  E  E  E  S S E     E  E  E  E  S S E     E  E  E  E  S S E   
E|--4--4--4--4--4-4-4--|--4--4--4--4--4-4-4--|--4--4--4--4--4-4-4--|
B|--5--5--5--5--5-| L-5--|--5--5--5--5--5-L-5--|--5--5--5--5--5-L-5--|
G|--4--4--4--4--4-| L-4--|--4--4--4--4--4-L-4--|--4--4--4--4--4-L-4--|
D|E|---------------|------|E|---------------|------|E|---------------|------|
A|E|---------------|------|E|---------------|------|E|---------------|------|
E|E|---------------|------|E|---------------|------|E|---------------|------|

  E  E  E  E  S S E     E  E  E  E  S S E     E  E  E  E  S S E             
E|--4--4--4--4--4-4-4--|--4--4--4--4--4-4-4--|--4--4--4--4--4-4-4--|---------|
B|--5--5--5--5--5-| L-5--|--5--5--5--5--5-L-5--|--5--5--5--5--5-L-5--|---------|
G|--4--4--4--4--4-| L-4--|--4--4--4--4--4-L-4--|--4--4--4--4--4-L-4--|---------|
D|E|---------------|------|E|---------------|------|E|---------------|------|---------|
A|E|---------------|------|E|---------------|------|E|---------------|------|---------|
E|E|---------------|------|E|---------------|------|E|---------------|------|---------|

E|---------|---------|---------|---------|---------|---------|---------|---------|
B|---------|---------|---------|---------|---------|---------|---------|---------|
G|---------|---------|---------|---------|---------|---------|---------|---------|
D|---------|---------|---------|---------|---------|---------|---------|---------|
A|---------|---------|---------|---------|---------|---------|---------|---------|
E|---------|---------|---------|---------|---------|---------|---------|---------|

E|--3-|
                                                    H        Q    Q    E   
E|---------|---------|---------|---------|---------|E|---------------|-3----3--|
B|---------|---------|---------|---------|---------|E|---------------|-3----3--|
G|---------|---------|---------|---------|---------|E|---------------|-4----4--|
D|---------|---------|---------|---------|---------|E|---------------|-5----5--|
A|---------|---------|---------|---------|---------|E|---------------|---------|
E|---------|---------|---------|---------|---------|E|---------------|---------|

E|--3-| |--3-|          |--3-|
  Q    Q    E  Q    Q    E     Q    Q    E  Q    Q     
E|--3------------5------------|--1E|---------------|--1----|
B|--3------------6------------|--1------------0----3----|
G|--4----x----x--7----x----x--|--2----x----x--0----2----|
D|--5----x----x--7----x----x--|--3----x----x--2----0----|
A|E|---------------|5------------|E|---------------|2---------|
E|E|---------------|-------------|E|---------------|----------|

E|--3-| |--3-|  |--3-|  |--3-|     |--3-|  |--3-|  |--3-|  |--3-|
  Q    E  Q    E  Q    E  Q    E     Q    E  Q    E  Q    E  Q    E   
E|--3----3--5----3--3----3--5----3--|--3----3--5----3--3----3--5----3--|
B|--5----5--5----5--5----5--5----5--|--5----5--5----5--5----5--5----5--|
G|--5----5--5----5--5----5--5----5--|--5----5--5----5--5----5--5----5--|
D|--5----5--5----5--5----5--5----5--|--5----5--5----5--5----5--5----5--|
A|E|---------------|E|---------------|----|E|---------------|E|---------------|----|
E|E|---------------|E|---------------|----|E|---------------|E|---------------|----|

E|--3-| |--3-|                                 |--3-|
  Q    Q    E  Q    Q    E     Q    Q    Q    Q       Q    Q    E  Q    Q     
E|--3------------5------------|--1----0----1----3----|--3----5----3--3----5----|
B|--3------------6------------|--1----0----3----5----|--5----5----5--5----5----|
G|--4----x----x--7----x----x--|--2----0----2----5----|--5----5----5--5----5----|
D|--5----x----x--7----x----x--|--3----2----0----5----|--5----5----5--5----5----|
A|E|---------------|5------------|E|---------------|--3----|E|---------------|----------|
E|E|---------------|-------------|E|---------------|-------|E|---------------|----------|

E|--3-| |--3-|
  Q    Q    E  Q    E  Q       W                                     
E|--3----5----3--| L----5--L----|--5E|---------------|-|E|---------------|----|
B|--5----5----5--| L----5--L----|--5E|---------------|-|E|---------------|----|
G|--5----5----5--| L----5--L----|--5E|---------------|-|E|---------------|----|
D|--5----5----5--| L----5--L----|--5E|---------------|-|E|---------------|----|
A|E|---------------|-------------|E|---------------|----|E|---------------|----|
E|E|---------------|-------------|E|---------------|----|E|---------------|----|

E|E|---------------|----|E|---------------|----|E|---------------|----|E|---------------|----|
B|E|---------------|----|E|---------------|----|E|---------------|----|E|---------------|----|
G|E|---------------|----|E|---------------|----|E|---------------|----|E|---------------|----|
D|E|---------------|----|E|---------------|----|E|---------------|----|E|---------------|----|
A|E|---------------|----|E|---------------|----|E|---------------|----|E|---------------|----|
E|E|---------------|----|E|---------------|----|E|---------------|----|E|---------------|----|

E|E|---------------|----|E|---------------|----|E|---------------|----|E|---------------|----|
B|E|---------------|----|E|---------------|----|E|---------------|----|E|---------------|----|
G|E|---------------|----|E|---------------|----|E|---------------|----|E|---------------|----|
D|E|---------------|----|E|---------------|----|E|---------------|----|E|---------------|----|
A|E|---------------|----|E|---------------|----|E|---------------|----|E|---------------|----|
E|E|---------------|----|E|---------------|----|E|---------------|----|E|---------------|----|

E|E|---------------|----|E|---------------|----|E|---------------|----|E|---------------|----|
B|E|---------------|----|E|---------------|----|E|---------------|----|E|---------------|----|
G|E|---------------|----|E|---------------|----|E|---------------|----|E|---------------|----|
D|E|---------------|----|E|---------------|----|E|---------------|----|E|---------------|----|
A|E|---------------|----|E|---------------|----|E|---------------|----|E|---------------|----|
E|E|---------------|----|E|---------------|----|E|---------------|----|E|---------------|----|

E|E|---------------|----|E|---------------|----|E|---------------|----|E|---------------|----|
B|E|---------------|----|E|---------------|----|E|---------------|----|E|---------------|----|
G|E|---------------|----|E|---------------|----|E|---------------|----|E|---------------|----|
D|E|---------------|----|E|---------------|----|E|---------------|----|E|---------------|----|
A|E|---------------|----|E|---------------|----|E|---------------|----|E|---------------|----|
E|E|---------------|----|E|---------------|----|E|---------------|----|E|---------------|----|

E|E|---------------|----|E|---------------|----|E|---------------|----|
B|E|---------------|----|E|---------------|----|E|---------------|----|
G|E|---------------|----|E|---------------|----|E|---------------|----|
D|E|---------------|----|E|---------------|----|E|---------------|----|
A|E|---------------|----|E|---------------|----|E|---------------|----|
E|E|---------------|----|E|---------------|----|E|---------------|----|

  E  E  E  E  E  E  E  E     E  E  E  E  E  E.                       
E|E|---------------|-----------|E|---------------|------|E|---------------|----|
B|E|---------------|--------0--|--1--0E|---------------||E|---------------|----|
G|--------------0--1--2-----|--------2--1--0------|E|---------------|----|
D|-----0--2--3--------------|E|---------------|--2---|E|---------------|----|
A|--3E|---------------|--------|E|---------------|------|E|---------------|----|
E|E|---------------|-----------|E|---------------|------|E|---------------|----|

  H.           E  E     E  E  E  E  E.  S E  E      Q     Q     Q     Q     
E|E|---------------|0--0--|E|---------------|--------1--|--12----10----10-----8----|
B|E|---------------|------|--6--4--6--7--6-----0-----|--13----11----11-----9----|
G|E|---------------|------|--6--| L--6--L--6-----------|--12----10----10-----8----|
D|E|---------------|------|--6--| L--6--L--6-----------|--14----12----12----10----|
A|E|---------------|------|--8--| L--8--L--8-----------|E|---------------|-----------|
E|E|---------------|------|E|---------------|-----------|E|---------------|-----------|

   Q    Q    Q    Q       Q    Q    Q     Q       W                 
E|---8----6----6----5----|--5----3----3-----8----|E|---------------|----|
B|---9----7----7----7----|--7----5----5-----8----|--5E|---------------|-|
G|---8----6----6----7----|--7----5----5-----9----|--5E|---------------|-|
D|--10----8----8----7----|--7----5----5----10----|--9E|---------------|-|
A|E|---------------|--------|E|---------------|--------|--7E|---------------|-|
E|E|---------------|--------|E|---------------|--------|--5E|---------------|-|


                      ^                                                         
  W                   E  H           E  H           E  H           E  H         
E|E|---------------|----|--0--| L--------|--L--L--------|--L--L--------|--L--L--------|
--LE|---------------|-|--0--L--------|--L--L--------|--L--L--------|--L--L--------|
--LE|---------------|-|--2--L--------|--L--L--------|--L--L--------|--L--L--------|
--LE|---------------|-|--2--L--------|--L--L--------|--L--L--------|--L--L--------|
--LE|---------------|-|--0--L--------|--L--L--------|--L--L--------|--L--L--------|
--L--E|E|--------------|--------------|--------------|--------------|--------------|


  ^                                                           ^            
  E  H           E  H           E  H           E  H           E  H         
E|--0--| L--------|--L--L--------|--L--L--------|--L--L--------|--0--L--------|
B|--0--| L--------|--L--L--------|--L--L--------|--L--L--------|--0--L--------|
G|--2--| L--------|--L--L--------|--L--L--------|--L--L--------|--2--L--------|
D|--2--| L--------|--L--L--------|--L--L--------|--L--L--------|--2--L--------|
A|--0--| L--------|--L--L--------|--L--L--------|--L--L--------|--0--L--------|
E|E|E|--------------|--------------|--------------|--------------|--------------|


                                               ^                           
  E  H           E  H           E  H           E  H           E  H         
--L--L--------|--L--L--------|--L--L--------|--0--L--------|--L--L--------|
--L--L--------|--L--L--------|--L--L--------|--0--L--------|--L--L--------|
--L--L--------|--L--L--------|--L--L--------|--2--L--------|--L--L--------|
--L--L--------|--L--L--------|--L--L--------|--2--L--------|--L--L--------|
--L--L--------|--L--L--------|--L--L--------|--0--L--------|--L--L--------|
E|E|--------------|--------------|--------------|--------------|--------------|


                                ^                                          
  E  H           E  H           E  H           E  H           E  H         
--L--L--------|--L--L--------|--0--L--------|--L--L--------|--L--L--------|
--L--L--------|--L--L--------|--0--L--------|--L--L--------|--L--L--------|
--L--L--------|--L--L--------|--2--L--------|--L--L--------|--L--L--------|
--L--L--------|--L--L--------|--2--L--------|--L--L--------|--L--L--------|
--L--L--------|--L--L--------|--0--L--------|--L--L--------|--L--L--------|
E|E|--------------|--------------|--------------|--------------|--------------|


                 ^                                                          
  E  H           E  H           E  H           E  H           E  H          
--L--L--------|--0--L--------|--L--L--------|--L--L--------|--L--L--------||
--L--L--------|--0--L--------|--L--L--------|--L--L--------|--L--L--------||
--L--L--------|--2--L--------|--L--L--------|--L--L--------|--L--L--------||
--L--L--------|--2--L--------|--L--L--------|--L--L--------|--L--L--------||
--L--L--------|--0--L--------|--L--L--------|--L--L--------|--L--L--------||
E|E|E|--------------|--------------|--------------|--------------|--------------| |

Duration Legend
E|---------------|
W - whole
H - half
Q - quarter
E - 8th
S - 16th
T - 32nd
X - 64th
. - note dotted
|-n-|  - n-tuplets


Tablature Legend
E|---------------|-
L - tied note
x - dead note
g - grace note
(n) - ghost note
> - accentuded note
NH - natural harmonic
AH - artificial harmonic
TH - tapped harmonic
SH - semi harmonic
PH - pitch harmonic
h - hammer on
p - pull off
b - bend
br - bendRelease
pb - preBend
pbr - preBendRelease
brb - bendReleaseBend
\n/ - tremolo bar dip
\n - tremolo bar dive
-/n - tremolo bar Release up
/n\ - tremolo bar inverted dip
/n - tremolo bar return
-\n - tremolo bar Release down
S - shift slide
s - legato slide
/ -  slide into from below or out of upwards
\ -  slide into from above or out of downwards
~ - vibrato
W - wide vibrato
tr - trill
TP - tremolo picking
T - tapping
S - slap
P - pop
< - fade in
^ - brush up
v - brush down
Outros vídeos desta música
    2 exibições
      • ½ Tom
      • A
      • Bb
      • B
      • C
      • Db
      • D
      • Eb
      • E
      • F
      • F#
      • G
      • Ab
    • Adicionar à lista

    Afinação da cifra

    Afinador online

      0 comentários

      Ver todos os comentários

      Entre para o Cifra Club PRO

      Tenha acesso a benefícios exclusivos no App e no Site

      • Chega de anúncios

      • Mais recursos no app do Afinador

      • Atendimento Prioritário

      • Aumente seu limite de lista

      • Ajude a produzir mais conteúdo

      Cifra Club Pro

      Aproveite o Cifra Club com benefícios exclusivos e sem anúncios
      Cifra Club Pro
      Aproveite o Cifra Club com benefícios exclusivos e sem anúncios
      OK