Cifra Club

Dog Breath Variations

Frank Zappa

Cifra: Principal (violão e guitarra)
Selo Cifra Club: esta cifra foi revisada para atender aos critérios oficiais da nossa Equipe de Qualidade.
tom: D
E|E|-------------------------------------------------------------------------------||
                    The Dog Breath Variations - Frank Zappa
E|E|-------------------------------------------------------------------------------||
Tabbed by: Jacque

Tuning: Standard

This is the "A Token of His Extreme" Version with the guitar playing in the introduction.

The rhythms in this song can be odd so make sure to listen carefully.

E|--------------------------------------------------------------------|
B|--------------------------------------------------------------------|
G|-------------------------------2-2-2-2-2----/14-14-14-14-14-12------|
D|------5------5------5------5---2-2-2-2-2-----------------------14---|
A|--5h7----5h7----5h7----5h7-----0-0-0-0-0----------------------------|
E|--------------------------------------------------------------------|

E|--------------------------------------------------------------------|
B|--------------------------------------------------------------------|
G|-------------------------------2-2-2-2-2----/14-14-14-14-14-12------|
D|------5------5------5------5---2-2-2-2-2-----------------------14---|
A|--5h7----5h7----5h7----5h7-----0-0-0-0-0----------------------------|
E|--------------------------------------------------------------------|

E|--------------------------------------------------------------------|
B|--------------------------------------------------------------------|
G|-------------------------------2-2-2-2-2----/14-14-14-14-14-12------|
D|------5------5------5------5---2-2-2-2-2-----------------------14---|
A|--5h7----5h7----5h7----5h7-----0-0-0-0-0----------------------------|
E|--------------------------------------------------------------------|

E|--------------------------------------------------------------------|
B|--------------------------------------------------------------------|
G|-------------------------------2-2-2-2-2----/14-14-14-14-14-12------|
D|------5------5------5------5---2-2-2-2-2-----------------------14---|
A|--5h7----5h7----5h7----5h7-----0-0-0-0-0----------------------------|
E|--------------------------------------------------------------------|

E|------------------------------------------9----5---7--3--5--2-------|
B|-------------10-7--7h8p7\5-5-----------------------------------5----|
G|-------------------------------12-11-9------------------------------|
D|--12-11-9------------------------------12---------------------------|
A|----------12--------------------------------------------------------|
E|--------------------------------------------------------------------|

E|----------------------------------------9---5--7--3--5--2-----|
B|----------10----7-7h8p7p5---------------------------------5---|
G|--7p6--------------------h9---12p11-11p9----------------------|
D|------9p7-----------------------------------------------------|
A|--------------------------------------------------------------|
E|--------------------------------------------------------------|
Outros vídeos desta música
    7 exibições
      • ½ Tom
      • A
      • Bb
      • B
      • C
      • Db
      • D
      • Eb
      • E
      • F
      • F#
      • G
      • Ab
    • Adicionar à lista

    Afinação da cifra

    Afinador online

      0 comentários

      Ver todos os comentários

      Entre para o Cifra Club PRO

      Tenha acesso a benefícios exclusivos no App e no Site

      • Chega de anúncios

      • Mais recursos no app do Afinador

      • Atendimento Prioritário

      • Aumente seu limite de lista

      • Ajude a produzir mais conteúdo

      Cifra Club Pro

      Aproveite o Cifra Club com benefícios exclusivos e sem anúncios
      Cifra Club Pro
      Aproveite o Cifra Club com benefícios exclusivos e sem anúncios
      OK