Cifra Club

Eat The Question

Frank Zappa

Cifra: Principal (violão e guitarra)
Selo Cifra Club: esta cifra foi revisada para atender aos critérios oficiais da nossa Equipe de Qualidade.
tom: A
Tema:


 Em DÓRICO...
---------------------------------------------------
---------------------------------------------------
---------------------------------------------------
-----2-0-2---2/4-2h4p2-----------------------------
-----------------------5-0-------------------------
-0-3-----------------------------------------------

...
---------------------------------------------------
---------------------------------------------------
---------------------------------------------------
---------------------------------------------------
-0-2-4-2-4----0h2p0---0h2p0---0-2---2--------------
--------------------3-------3-----3-0--------------


Improvisação livre...
(Livre mesmo!)
Outros vídeos desta música
    3.191 exibições
      • ½ Tom
      • A
      • Bb
      • B
      • C
      • Db
      • D
      • Eb
      • E
      • F
      • F#
      • G
      • Ab
    • Adicionar à lista

    Afinação da cifra

    Afinador online

      0 comentários

      Ver todos os comentários

      Entre para o Cifra Club PRO

      Tenha acesso a benefícios exclusivos no App e no Site

      • Chega de anúncios

      • Badges exclusivas

      • Mais recursos no app do Afinador

      • Atendimento Prioritário

      • Aumente seu limite de lista

      • Ajude a produzir mais conteúdo

      Cifra Club Pro

      Aproveite o Cifra Club com benefícios exclusivos e sem anúncios
      Cifra Club Pro
      Aproveite o Cifra Club com benefícios exclusivos e sem anúncios
      OK