Cifra Club

Aprenda

Land of the Free

Gamma Ray

Cifra: Principal (violão e guitarra)
Quer fazer aulas de música com a gente? Responda essas perguntas
e nos ajude nesse projeto! →
tom: B
  Intro(gtr 1)
e:---------------------------------------------------------------------------|
B:---------------------------------------------------------------------------|
G:---------------------------------------------------------------------------|
D:----------------5---------------------------9--9----------------5----------|
A:--5h7--7-7-7-7-----7-7-7-7-7--7-5-3---------7--7--5h7--7-7-7-7-----7-7-7-7-|
E:-------------------------------------7-5-3---------------------------------|
        (____________________________)                  (_______)    (_______


                           Intro(gtr 2)                                 4x
e:---------------------------------------------------------------------------|
B:-----------------------|----------------8----------------------------------|
G:-----------------------|--7h9--9-9-9-9-----9-9-9-9-9--9-7-5---------9--9---|
D:-----------------------|-------------------------------------9-7-5--9--9---|
A:7--7-5-3---------2--2--|---------------------------------------------------|
E:----------7-5-3--0--0------------------------------------------------------|
  _______________)              (___________________________________)


   Riff 1
e:-----------------------------------------7-------------7-------------------|
B:-----------------------------------------8-------------8-------------------|
G:-----------------------------------------9-------------9-------------------|
D:--4-----------4-----------4--5--7--9-----9----7--------9--5--7-------------|
A:--2--2-2-2-2--2--2-2-2-2--2--3--5--7-----7----5--7-----7--3--5-------------|
E:--------------------------------------0----------5--0-----------0~--(while-|
      (_______)   (_______)

                                                                Bridge
e:---------------------------------------------------------------------------|
B:-----------------------------------------------------------|---------------|
G:-----------------------------------------------------------|---------------|
D:-------4-----------4-----------4--5--7--9------------------|--5----7-------|
A:-------2--2-2-2-2--2--2-2-2-2--2--3--5--7(dive-bar)-(sing)-|--3----5----9--|
E:sing)-------------------------------------------------------------------7--|
           (_______)   (_______)

                         Chorus
e:------------------------3---------------------------------------3----------|
B:---------------------|--3---------------------------------------3----------|
G:-------7-------------|--0---------------------------------------0----------|
D:--9----5-----5----7--|--0----7----9----4----5--------------7----0----7----9|
A:--7----------3----5--|--2----5----7----2----3----5----7----5----2----5----7|
E:------------------------3------------------------3----5---------3----------|


                          Solo 1(gtr 1)
e:-------------------3-------------------------------------------------------|
B:-------------------3--|--12---------------------------------13-------------|
G:-------------------0--|------9--11--12--12b(14)--11--9----------9--11--12--|
D:----4----5----7----0--|---------------------------------12-----------------|
A:----2----3----5----2--|----------------------------------------------------|
E:-------------------3-------------------------------------------------------|


e:--------------------8------------------------------------------------------|
B:-----------------------12~---------------------------------13--------------|
G:12b(14)--11--9--------------9--11--12--12b(14)--11--9----------9--11--12b14|
D:----------------12-------------------------------------12------------------|
A:---------------------------------------------------------------------------|
E:---------------------------------------------------------------------------|

                                                                   Verse 2
e:---------------------------------------------------------------------------|
B:------------------------------ah--|-Guitar-2-does-the-octave--|------------|
G:----11--9--------8~--9~--11~--12~-|---------------------------|------------|
D:-----------12---------------------|---------------------------|--5--7----9-|
A:----------------------------------|---------------------------|--3--5----7-|
E:---------------------------------------------------------------------------|


e:---------------------------------------------------------------------------|
B:---------------------------------------------------------------------------|
G:---------------------------------------------------------------------------|
D:--------9---------9---------9---------9---------9---------8----------------|
A:-7-7-7--7--7-7-7--7--7-7-7--7--7-7-7--7--7-7-7--7--7-7-7--7----10--9--7----|
E:-------------------------------------------------------------------------10|
  (_____)   (_____)   (_____)   (_____)   (_____)   (_____)     (____________


       2x                                   1st Solo(Kai)
e:---------------------------------------------------------------------------|
B:---------|-Repeat-Bridge-|-Repeat-Chorus-|---------------------------------|
G:---------|---------------|---------------|------4b(6)rb4~--2h4--2--4-------|
D:---------|---------------|---------------|----------------------------4b(5)|
A:---------|---------------|---------------|---------------------------------|
E:--8--7---------------------------------------------------------------------|
  ______)


                               2nd Solo(Dirk)
e:---------------------------------------------------------------------------|
B:---------------------------|-----------------------7----------7----------7-|
G:---------------------------|---------5/7~--9b(11)-----9b(11)-----9b(11)----|
D:4--2--4--1--1--2--4--1-----|--5b(7)----------------------------------------|
A:------------------------2~-|-----------------------------------------------|
E:---------------------------------------------------------------------------|
                                            *Tremoling Bar


             3rd Solo(Kai)
e:-------------------------------------------------19--18--15----------------|
B:---------|--15b(17)--15b(17)~--17b(19)--16--17~--------------19--17--15--17|
G:-9b(11)*-|-----------------------------------------------------------------|
D:---------|-----------------------------------------------------------------|
A:---------|-----------------------------------------------------------------|
E:---------------------------------------------------------------------------|


                                                      4th Solo(Dirk)
e:---------------------------------------------------------------------------|
B:--15------15---------------------------------------|--22b(24)--24b(26)22b24|
G:------18------18--16--15---------------------------|-----------------------|
D:--------------------------17--16--14---------------|-----------------------|
A:--------------------------------------17--16--14~--|-----------------------|
E:---------------------------------------------------------------------------|


e:----------------19------------------19---------19---------22b(24)--24b(26)~|
B:----~--22b(24)------22p19--22b(24)------22p19------22p19-------------------|
G:---------------------------------------------------------------------------|
D:---------------------------------------------------------------------------|
A:---------------------------------------------------------------------------|
E:---------------------------------------------------------------------------|


     5th Solo(Using Octaver Pedal)
e:-------------------------------------------12------------------------------|
B:-|--15-------15--------------------------------15b(17)--15-----------------|
G:-|--14b(16)--14b(16)rb14--12--14~--14--14---------------14b(16)--12--14----|
D:-|-----------------------------------------------------------------------14|
A:-|-------------------------------------------------------------------------|
E:---------------------------------------------------------------------------|


                                         Verse 2
e:---------------------------------------------------------------------------|
B:--------------------------------------|------------------------------------|
G:---12--14--14b(16)rb14--12--14b(16)~--|------------------------------------|
D:~-------------------------------------|--6---------------------------------|
A:--------------------------------------|--4--4-4-4-4-4-4-4-4-4-4-4-4-4-4-4-4|
E:---------------------------------------------------------------------------|
                                             (_______________________________


e:---------------------------------------------------------------------------|
B:---------------------------------------------------------------------------|
G:---------------------------------------------------------------------------|
D:----------------------------2--4----6--------------------------------------|
A:-4-4-4-4-4-4-4-4-4-4-4-4-4--0--2----4--4-4-4-4-4-4-4-4-4-4-4-4-4-4-4-4-4-4-|
E:---------------------------------------------------------------------------|
  __________________________)

                                                                        Solo
e:---------------------------------------------------------------------------|
B:--------------------------------------------------------------------|------|
G:--------------------------------------------------------------------|--12--|
D:-----------------------2--4----6/8----8---8----4--6--8--8--8--4--6--|------|
A:4-4-4-4-4-4-4-4-4-4-4--0--2----4/6----6---6----2--4--6--6--6--2--4--|------|
E:---------------------------------------------------------------------------|


e:---------------------------------------------------------------------------|
B:---------------------------------------------------------------------------|
G:14--16--14--12--11--12--11-------------12--14--16--14--12--11--12--11------|
D:----------------------------12--12/14----------------------------------14--|
A:---------------------------------------------------------------------------|
E:---------------------------------------------------------------------------|


e:---------------------------------------------------------------------------|
B:---------------------------------------------------------------------------|
G:----12--14--16--12--11--12--11-------------12--14--16--14--12--11--12--11--|
D:12------------------------------12--12/14----------------------------------|
A:---------------------------------------------------------------------------|
E:---------------------------------------------------------------------------|

                                              2x
e:--------19--17--15---------------------------------------------------------|
B:--------------------19--17--15--17--15---------|---------------------------|
G:----------------------------------------18--16-|--------------------ah-----|
D:14--12-----------------------------------------|--7---------8~--9~--12~----|
A:-----------------------------------------------|--5----7-------------------|
E:-------------------------------------------------------5------------------7|


e:---------------------------------------------------------------------------|
B:----------------------|--Repeat-Chorus--|----------------------------------|
G:----------------------|-----------------|----------------------------------|
D:----------------------|-----------------|----------------------------------|
A:----------------------|-----------------|-4----5----4----5----4----5----4--|
E:--5--3--2--7--5--3--2---------------------2----3----2----3----2----3----2--|

                     
e:---------------------------------------------------------------------------|
B:------|-15b(17)-|-End------------------------------------------------------|
G:------|---------|----------------------------------------------------------|
D:------|---------|----------------------------------------------------------|
A:--2~--|---------|----------------------------------------------------------|
E:--0~-----------------------------------------------------------------------|
Composição de Kai Hansen
3.657 exibições
    • ½ Tom
    • A
    • Bb
    • B
    • C
    • Db
    • D
    • Eb
    • E
    • F
    • F#
    • G
    • Ab
  • Adicionar à lista

    0 comentários

    Ver todos os comentários

    Conseguiu tocar?

    0 Tocaram 0 Ainda não

    Grave um vídeo tocando Land of the Free e nos envie!

    00:00 / 00:00
    Outros vídeos desta música
    Repetir Qualidade Automático
    Outros vídeos desta música
    00:00 / 00:00
    Automático

    Cifra Club Pro

    Aproveite o Cifra Club com benefícios exclusivos e sem anúncios
    Cifra Club Pro
    Aproveite o Cifra Club com benefícios exclusivos e sem anúncios
    OK