Cifra Club

Aprenda

Man On A Mission Live

Gamma Ray

Cifra: Principal (violão e guitarra)
Quer fazer aulas de música com a gente? Responda essas perguntas
e nos ajude nesse projeto! →
tom: A
Album: LAND OF THE FREE
[Words&Music by Kai Hansen] 


[Transcripted by L-X]
(for any comments or suggestions regarding this interpretation : mail-me)


Notations :
.: palm muting (or timing)
h : hammer-on
p : pull-off
^ : bend 
/ = slide-up
\ = slide-down
~ = vibrato
tr~ = trill
---|
||----------------------------------------------------------------| 


INTRO3

||.*|
||----------------------------------------------------------------| 
||------------------------|-------------------------------|-------|
||----------------------223322--------------------------223322----|
|||-------|-------|-----------5533|-------|-------|-----------5533|
||1111110011111100111111----------1111110011111100111111----------| 
||
||.*|
||------------------------|-|-----------------------------|-|-----|
||10--10p910--10p910--10p9109-|-|-14-14p1214-14p1214-14p121412|-|-|
||----------------------------1210----------------------------1514|
||----------------------------------------------------------------|
||----------------------------------------------------------------| 

COUPLET1

Kai plays this part like this (saw Live)...!

man on a mission and my deligence won't wait there are supersonics killers in the sky__ 
||.*|
||----------------------------------------------------------------|
||----------------|-------------------------------|----------->---|
|||---------------5---|---|-------|---------------5---|---|-|-5---|
||7---|---|---|---333333335---|---7---|---|---|---333333335-3-5---|
||5555555555555555--------333333335555555555555555--------.*|


all you do will be analysed________they control every step of your life___
||.*|
||----------------------------------------------------------------|
||----------------|--------------------------------->---|->-------|
|||---------------5---|---|---|---|-------|---------7---5-7\------|
||7---|---|---|---33333333333333333---|---5---|---|-7---5-7\------|
||5555555555555555----------------11111111333333335-5---3-5\------|

COUPLET2


mankind has gone to high extreme__________darkside on the way_______
||.*|
||----------------------------------------------------------------|
||----------------|-------------------------------|----------->---|
|||---------------5---|---|-------|---------------5---|---|-|-5---|
||7---|---|---|---333333335---|---7---|---|---|---333333335-3-5---|
||5555555555555555--------333333335555555555555555--------.*|


___all I see is a ___masquerade____________terminations_______ waits
||.*|
||----------------------------------------------------------------|
||----------------|--------------------------------->---|->-------|
|||---------------5---|---|---|---|-------|---------7---5-7\------|
||7---|---|---|---33333333333333333---|---5---|---|-7---5-7\------|
||5555555555555555----------------11111111333333335-5---3-5\------|

BRIDGE

__Oh,_____ I've seen the faces__ of___ a___ million __leaving here___
||arbitrary time-----------------------------------------------------------|
|||-----------------------|-------------------|-----------------|----------| 
||7-----------------------7-------------------2-----------------2----------|
||7-----------------------7-------------------2-----------------2----------|
||5-----------------------5-------------------0-----------------0----------|
||-------------------------------------------------------------------------|
||
||-------------------------------------------------------------------------|
||-------------------------------------------------------------------------|
||----------------------------------10-9-10p9-9-7-9p7----------------------|
||------------------------10-9-10p9-------------------10-9-10p9------------|
||------------12-11-12p11---------------------------------------12-11-12p11|
||13-12-13p12--------------------------------------------------------------|

___________Abandonned times__ and_ places___ of_ a__ world__witout__a___fear
||------------------------------------------------------------------------------|
||------------|---------------------|------------------|------------------|-----| 
||------------7---------------------7------------------10-----------------5-----|
||------------7---------------------7------------------10-----------------5-----|
||------------5---------------------5------------------8------------------3-----|
||------------------------------------------------------------------------------|
||
||------------------------------------------------------------------------------|
||-----------------------------------------------------10~----------------------|
||-------------------------------------------10-9-10-12-------10--10------------|
||----------------------------------10-9-10p9--------------------10--10---10~---|
||-----------------------12-11-12p11------------------------------------10------|
||12-10-12p10-13-12-13p12-------------------------------------------------------|

_______Quest is drawing near_______the mystery___ of___ fear_
||------------------------------------------------------------------------------|
||---------|------------|---------------|-----------------|---------------------| 
||---------3------------7---------------10----------------5---------------------|
||---------3------------7---------------10----------------5---------------------|
||---------1------------5---------------8-----------------3---------------------|
||------------------------------------------------------------------------------|
||
||------------------------------------------------------------------------------|
||------------------------------------------------------------------------------|
||------------------------------------------------------------------------------|
||------------------------------------------------------------------------------|
||10--10---------------12~--12-10-12-13/15~--12-15-12-13--12--------------------|
||--12--10/13~----10h13---------------------------------15--13-15-12-13-10-12-10|

is just about to clear__
||-------------------------------------|
|||------------------------------------|
||4------------------------------------|
||4------------------------------------|
||2------------------------------------|
||-------------------------------------|
||
||------------------------------tr~----|
||-------------------tr~--tr~---12(13)-|
||--------------tr~--8(9)-11(12)-------|
||----tr~--tr~--9(10)------------------|
||tr~-6(7)-9(10)-----------------------|
||7(8)---------------------------------|


REFRAIN

What we need right__ now_____________is a miracle_________ on earth_____
||.*|
||--------------------------------|---------------|---------------|
|||---------------|---------------7---------------5---------------|
||3---------------7---------------7---------------5---------------|
||3---------------7---------------5---------------3---------------|
||1---------------5-----------------------------------------------|
||
||.*|
||----------------------------------------------------------------|
||----------------------------------------------------------------|
||--------------------------------|---|---|---|---|---|---|---|---|
|||---|---|---|---|---|---|---|---55555555555555553333333333553333|
||11111111111111115555555555555555--------------------------------|
P.M.[............................................................]

Let our hearts cry___ out________ so our voices__ can__ be__ heard
||.*|
||--------------------------------|---------------|---------------|
|||---------------|---------------7---------------5---------------|
||3---------------7---------------7---------------5---------------|
||3---------------7---------------5---------------3---------------|
||1---------------5-----------------------------------------------|
||
||.*|
||----------------------------------------------------------------|
||----------------------------------------------------------------|
||--------------------------------|---|---|---|---|---|---|---|---|
|||---|---|---|---|---|---|---|---55555555555555553333333333553333|
||11111111111111115555555555555555--------------------------------|
P.M.[............................................................]

Rest is coming soon...
Compositor não encontrado.
368 exibições
    • ½ Tom
    • A
    • Bb
    • B
    • C
    • Db
    • D
    • Eb
    • E
    • F
    • F#
    • G
    • Ab
  • Adicionar à lista

    0 comentários

    Ver todos os comentários

    Conseguiu tocar?

    0 Tocaram 0 Ainda não

    Grave um vídeo tocando Man On A Mission Live e nos envie!

    00:00 / 00:00
    Outros vídeos desta música
    Repetir Qualidade Automático
    Outros vídeos desta música
    00:00 / 00:00
    Automático

    Cifra Club Pro

    Aproveite o Cifra Club com benefícios exclusivos e sem anúncios
    Cifra Club Pro
    Aproveite o Cifra Club com benefícios exclusivos e sem anúncios
    OK