Cifra Club

A Wonderful Thing To Taste

Garage Fuzz

Cifra: Principal (violão e guitarra)
Selo Cifra Club: esta cifra foi revisada para atender aos critérios oficiais da nossa Equipe de Qualidade.
tom: G
Esse som parece ter duas guitas... eu tirei ele soh com o violao

~ = Slide

e|-------0-----0-0------------------------------------------|
B|-------3-----3-3-3-3~5------------------------------------|
G|-----2-----2-----------4----------------------------------|
D|---0-----0------------------------------------------------|
A|---0-----0------------------------------------------------|
E|----------------------------------------------------------|   [4X]

e|---3-3-2-2---------------2~3---------0----0----0----------|
B|--------------5-3-3-5----------5---3----3----3------------|
G|-----------------------4----------------------------------|
D|----------------------------------------------------------|
A|----------------------------------------------------------|
E|----------------------------------------------------------|   [2X]

e|---------0-----0-----0-----0-----0------3-3-2-2-----------|
B|-----5~3---5~3---5~3---5-3---5~3---5~3----------5-3-3-----|
G|---4------------------------------------------------------|
D|----------------------------------------------------------|
A|----------------------------------------------------------|
E|----------------------------------------------------------|   [2X]

e|------------7----8-7-5-7---0------------------------------|
B|---7~8-10-----10---------8-8----8-------------------------|
G|----------9----------------9--9---------------------------|
D|----------------------------------------------------------|
A|----------------------------------------------------------|
E|----------------------------------------------------------|   [2X]

e|---00000-0000-00------------------------------------------|
B|---33333-3333-33------------------------------------------|
G|---22222~4444~22------------------------------------------|
D|---00000-0000-00------------------------------------------|
A|---00000-0000-00------------------------------------------|
E|----------------------------------------------------------|   [8X]
Outros vídeos desta música
    2.902 exibições
      • ½ Tom
      • A
      • Bb
      • B
      • C
      • Db
      • D
      • Eb
      • E
      • F
      • F#
      • G
      • Ab
    • Adicionar à lista

    Afinação da cifra

    Afinador online

      0 comentários

      Ver todos os comentários

      Entre para o Cifra Club PRO

      Tenha acesso a benefícios exclusivos no App e no Site

      • Chega de anúncios

      • Badges exclusivas

      • Mais recursos no app do Afinador

      • Atendimento Prioritário

      • Aumente seu limite de lista

      • Ajude a produzir mais conteúdo

      Cifra Club Pro

      Aproveite o Cifra Club com benefícios exclusivos e sem anúncios
      Cifra Club Pro
      Aproveite o Cifra Club com benefícios exclusivos e sem anúncios
      Ops (: Contenido disponible sólo en portugués.
      OK