Cifra Club

Amor ou amizade

Gatinha Manhosa

Cifra: Principal (violão e guitarra)
Selo Cifra Club: esta cifra foi revisada para atender aos critérios oficiais da nossa Equipe de Qualidade.
tom: A
A             E        D
Solidão abre essa porta, manda embora essa
        Bm           E
Saudade que não faz nenhum sentido
        C#m                  F#m
Eu já encontrei outra pessoa, estamos vivendo numa boa
       Bm            D        E
Pra que lembrar e revirar as coisas do passado
  A              F#m        A           F#m
Coração me diz se é verdade, se é paixão, amor ou amizade
    Bm                       E
Se for amizade Deus o que ela vai pensar de mim
        A  E       F#m
Se me ver chorando ou me lamentando
              Bm D      C#m     F#m
Sofrendo por um outro amor que só deixou saudade
   C#m     F#m       Bm      A/C#       D      E
É amor ou amizade, vai antiga paixão sai do meu coração!
A              Bm
Pra que chorar o que passou, passou
D      E       D    A
Vou me entregar a esse novo amor
A              Bm
Pra que chorar o que passou, passou
     D            E             A  D
Não adianta mais querer colar o que quebrou, quebrou

[Tab - Solo]

E|------------------9----7------------------------9/12~---|
B|--------10~---------------------10---9------------------|
G|------------9-------------------------------------------|
D|--------------------------------------------------------|
A|--------------------------------------------------------|
E|--------------------------------------------------------|

E|-----------------9---7----------------------------------|
B|---------7---------------10----9------------------------|
G|------------------------------------9/11\9--------------|
D|--------------------------------------------------------|
A|--------------------------------------------------------|
E|--------------------------------------------------------|

E|--------------------------------------------------------|
B|---------------------------7-----9--10--12--------------|
G|-------7-6-7---9-----7--9-------------------------------|
D|--------------------------------------------------------|
A|--------------------------------------------------------|
E|--------------------------------------------------------|

  A              F#m        A           F#m
Coração me diz se é verdade, se é paixão, amor ou amizade
    Bm                       E
Se for amizade Deus o que ela vai pensar de mim
        A  E       F#m
Se me ver chorando ou me lamentando
              Bm D      C#m     F#m
Sofrendo por um outro amor que só deixou saudade
   C#m     F#m       Bm      A       D     E
É amor ou amizade, vai antiga paixão sai do meu coração!
A              Bm
Pra que chorar o que passou, passou
D      E       D    A
Vou me entregar a esse novo amor
A              Bm
Pra que chorar o que passou, passou
     D            E             A  D
Não adianta mais querer colar o que quebrou, quebrou
Outros vídeos desta música
44.523 exibições
    • ½ Tom
    • A
    • Bb
    • B
    • C
    • Db
    • D
    • Eb
    • E
    • F
    • F#
    • G
    • Ab
  • Adicionar à lista

Afinação da cifra

Afinador online

    0 comentários

    Ver todos os comentários

    Entre para o Cifra Club PRO

    Tenha acesso a benefícios exclusivos no App e no Site

    • Chega de anúncios

    • Mais recursos no app do Afinador

    • Atendimento Prioritário

    • Aumente seu limite de lista

    • Ajude a produzir mais conteúdo

    Cifra Club Pro

    Aproveite o Cifra Club com benefícios exclusivos e sem anúncios
    Cifra Club Pro
    Aproveite o Cifra Club com benefícios exclusivos e sem anúncios
    OK