Enviar cifraEntrar

Prá Não Dizer Que Não Falei Das Flores

Geraldo Vandré

Cifra: Principal
exibições 895.084
Tom: D
Intro:

       Em                       D                Em                 D
E|-12--------12--10-|-10-------12-10---|-10---------------|------------------|
B|----12--10--------|----10-12---------|----12-10-8-10-10-|-10-8-7--8-7-5-5--|
G|------------------|------------------|------------------|------------------|
D|------------------|------------------|------------------|------------------|
A|------------------|------------------|------------------|------------------|
E|------------------|------------------|------------------|------------------|


( Em D ) com vocalização


      Em     D            Em                D
E|-----|--------3-2-|-0-5h7-5---------|-3-2-3-2-0-2-0-|
B|-----|----2h3-----|---------7-5-5-3-|---------------|
G|-2h3-|-2----------|-----------------|---------------|
D|-----|------------|-----------------|---------------|
A|-----|------------|-----------------|---------------|
E|-----|------------|-----------------|---------------|


     Em         D         D           Em
Caminhando e cantando e seguindo a canção
      Em     D            D        Em
Somos todos iguais braços dados ou não
      Em                 D           Em
Nas escolas nas ruas, campos, construções
     Em         D         D           Em
Caminhando e cantando e seguindo a canção

Refrão:
G            D             D           Em
Vem, vamos embora, que esperar não é saber
     Em         D           D          Em
Quem sabe faz a hora, não espera acontecer (2x)


      Em       D               Em            D
E|---0-3-|-3-2---3-2-3-2-|-0-----7-5-5-|-5-5-5-5-3-3-2-0-|
B|-0-----|-----0---------|---5-8-------|-----------------|
G|-------|---------------|-------------|-----------------|
D|-------|---------------|-------------|-----------------|
A|-------|---------------|-------------|-----------------|
E|-------|---------------|-------------|-----------------|


Em    D                               Em
Pelos campos há fome em grandes plantações
Em    D                             Em
Pelas ruas marchando indecisos cordões
         Em       D              D       Em
Ainda fazem da flor seu mais forte refrão
         Em       D        D            Em
E acreditam nas flores vencendo o canhão

(Refrão)


      Em            D                   Em                 D
E|-15-15-15-15-|-14-12-15-14-12-12-|-12-----------------|-------7-5-----7-5--|
B|-------------|-------------------|----15-12-10-10-8-8-|-8-7-5-----7-5-----8|
G|-------------|-------------------|--------------------|--------------------|
D|-------------|-------------------|--------------------|--------------------|
A|-------------|-------------------|--------------------|--------------------|
E|-------------|-------------------|--------------------|--------------------|


Em           D                  Em
Há soldados armados, amados ou não
Em           D                   Em
Quase todos perdidos de armas na mão
          Em            D          D       Em
Nos quartéis lhes ensinam uma antiga lição
        Em          D        D          Em
De morrer pela pátria e viver sem razão

(Refrão)


      Em   D                   Em                  D
E|----|-------------12-10-|-10------------3-3-|-3---5-3-------|
B|-12-|-12-12-12-10-------|-------------3-----|---3-----5-3-0-|
G|----|-------------------|-----2-2/4-0-------|---------------|
D|----|-------------------|-------------------|---------------|
A|----|-------------------|-------------------|---------------|
E|----|-------------------|-------------------|---------------|


Em           D                       Em
Nas escolas, nas ruas, campos, construções
Em           D                   Em
Somos todos soldados, armados ou não
     Em            D         D            Em
Caminhando e cantando e seguindo a canção
     Em          D         D           Em
Somos todos iguais braços dados ou não
Em           D                   Em
Os amores na mente, as flores no chão
Em           D                    Em
A certeza na frente, a história na mão
    Em            D          D           Em
Caminhando e cantando e seguindo a canção
      Em          D          D        Em
Aprendendo e ensinando uma nova lição

(Refrão) 2x
  • 1
  • 2
  • 3
  • 4
  • 5
  • 6
  • 7
  • 8
  • 9
  • 10
  • 11
  • 12
    Acordes para:
      Composição: Geraldo VandréColaboração e revisão:

      0 comentários

        mostrar mais comentários

        Conseguiu tocar?

        74tocaram0ainda não

        Grave um vídeo tocando Prá Não Dizer Que Não Falei Das Flores e mande pra gente!

        00:00 / 00:00
        outros vídeos desta música
        repetirqualidadeautomática
        • automática
        Outro vídeos desta música
          00:00 / 00:00
          automática
          • automática
          1 versão de Tab de baixoexibiçõescontribuições
          1 versão de Partiturasformatodownloadscontribuição
          fecharplay/pause subir/descer velocidade
            acordes
            fechar
            OK
            Feedback