Cifra Club

Where Did You Go

Ginuwine

Cifra: Principal (violão e guitarra)
Selo Cifra Club: esta cifra foi revisada para atender aos critérios oficiais da nossa Equipe de Qualidade.
tom: C
E|----------|----------------------------|------------|----------|----------------|
B|----------|--------5--------------5----|------------|----------|----------------|
G|----------|-----------5----------------|------------|-11/13-13-|----------------|
D|----------|----------------------------|------------|-11/13-13-|----------------|
A|----------|----------------------------|-5/7-5------|----------|----------------|
E|----------|----------------------------|------------|----------|----------------|
  Chorus           h  h           h

E|----------|-9----9--------9-----------------0----------9----9----9----9-------|
B|----------|-10---10----10---------------------0h2p0----10---10---10------10---|
G|----------|-x----x-------------------------------------x----x----x------------|
D|----------|-------------------------------------------------------------------|
A|----------|-------------------------------------------------------------------|
E|----------|-------------------------------------------------------------------|
  Verse
E|------------------0---------|-------|-----------------------------------------|
B|--------------------0h2p0---|-------|-----------------------------------------|
G|----------------------------|-------|-----------------------------------------|
D|----------------------------|-------|-----------------------------------------|
A|----------------------------|-------|-----------------------------------------|
E|----------------------------|-------|-----------------------------------------|
                              Verse
E|----------|-9----------------------------------------------------|------------|
B|----------|-10---------------5------5----------------------------|------------|
G|----------|-x--------------7-----4--------------14-14--14--x-9---|------------|
D|----------|-------------------------------------14-14--14--x-7---|------------|
A|----------|------------------------------------------------------|------------|
E|----------|------------------------------------------------------|------------|
Outros vídeos desta música
    1 exibições
      • ½ Tom
      • A
      • Bb
      • B
      • C
      • Db
      • D
      • Eb
      • E
      • F
      • F#
      • G
      • Ab
    • Adicionar à lista

    Afinação da cifra

    Afinador online

      0 comentários

      Ver todos os comentários

      Entre para o Cifra Club PRO

      Tenha acesso a benefícios exclusivos no App e no Site

      • Chega de anúncios

      • Mais recursos no app do Afinador

      • Atendimento Prioritário

      • Aumente seu limite de lista

      • Ajude a produzir mais conteúdo

      Cifra Club Pro

      Aproveite o Cifra Club com benefícios exclusivos e sem anúncios
      Cifra Club Pro
      Aproveite o Cifra Club com benefícios exclusivos e sem anúncios
      OK