Cifra Club

Think Of Me

Good Riddance

Cifra: Principal (violão e guitarra)
Selo Cifra Club: esta cifra foi revisada para atender aos critérios oficiais da nossa Equipe de Qualidade.
tom: G
Intro:
E|------------------|------------------------------------------------|
B|------------------|------------------------------------------------|
G|-------10---------|------10-10-10-9-10-----------------------------|
D|-7--10-10---------|------10-10-10-9-10-10--------------------------|
A|-7--10--8---------|-------8--8--8-7--8-10--------------------------|
E|-5---8------------|---------------------8--------------------------|
        (3x)

Verso 3x:
E|------------------|------------------------------------------------|
B|------------------|------------------------------------------------|
G|-------10---------|-------10-10-10-10-10-10------------------------|
D|-7--10-10---------|-------10-10-10-10-10-10------------------------|
A|-7--10--8---------|--------8--8--8--8--8--8------------------------|
E|-5---8------------|------------------------------------------------|
        (3x)

Refrão:
E|-----------------|--------|----------------------------------------|
B|-----------------|--------|----------------------------------------|
G|-7----10---------|--7-----|--10-10-10-9-10-7-----------------------|
D|-7--8-10-10------|--7--8--|--10-10-10-9-10-7-----------------------|
A|-5--8--8-10------|--5--8--|---8--8--8-7--8-5-----------------------|
E|----6-----8------|-----6--|----------------------------------------|
       (2x)           (3x)

Ponte:
E|-----------x-------------------|------|
B|-----------x-------------------|------|
G|-----------x-------------------|------|
D|-2-4--5----x----7--9-10-9-7----|-2-2-5|
A|-2-4--5---------7--9-10-9-7----|-2-2-5|
E|-0-2--3---------5--7--8-7-5----|-0-0-3|
            (2x)
Outros vídeos desta música
    141 exibições
      • ½ Tom
      • A
      • Bb
      • B
      • C
      • Db
      • D
      • Eb
      • E
      • F
      • F#
      • G
      • Ab
    • Adicionar à lista

    Afinação da cifra

    Afinador online

      0 comentários

      Ver todos os comentários

      Entre para o Cifra Club PRO

      Tenha acesso a benefícios exclusivos no App e no Site

      • Chega de anúncios

      • Mais recursos no app do Afinador

      • Atendimento Prioritário

      • Aumente seu limite de lista

      • Ajude a produzir mais conteúdo

      Cifra Club Pro

      Aproveite o Cifra Club com benefícios exclusivos e sem anúncios
      Cifra Club Pro
      Aproveite o Cifra Club com benefícios exclusivos e sem anúncios
      OK