Cifra Club

Boston And St Johns

Great Big Sea

Cifra (violão e guitarra)
Selo Cifra Club: esta cifra foi revisada para atender aos critérios oficiais da nossa Equipe de Qualidade.
tom: D
Em - 022000     D* - 20023x
D  - xx032x     A* - x0223x
G  - 320033     A  - x02220

Intro (Riff 1)

 Em        D*         G              Em       D*          G
E|----------------------------------|----------------------------------3-----|
B|------0----------3----------3--3--|------0----------3----------3--3--3--3--|
G|---------0----------2----------0--|---------0----------2----------0--0--0--|
D|----2---------0----------0-----0--|----2---------0----------0-----0--0--0--|
A|----------------------------------|----------------------------------------|
E|-0---------2----------3-----------|-0---------2----------3-----------------|

        Wha - ooo     Wha - ooooo   nah .....
 Em        D*         G              Em       D*          G
E|----------------------------------|---------------------------------3------|
B|------0----------3----------3--3--|------0----------3----------3----3------|
G|---------0----------2----------0--|---------0----------2------------0------|
D|----2---------0----------0-----0--|----2---------0----------0-------0------|
A|----------------------------------|----------------------------------------|
E|-0---------2----------3-----------|-0---------2----------3-----------------|


Verse 1:
D           A*               G
Girl don't tell me that it's morning
D       A*       G
Can we keep the curtains drawn?
D           A*            G
I haven't given you fair warning
D         A*      G
But our ship, she sails at dawn

Chorus:
        Em              D*           G                 A*
And it's true I must be going, but I swear it won't be long
      D               A*             G             A
There isn't that much ocean between Boston and St.John's
D      A*             D       A     G
I'm a rover, and I'm bound to sail away
A       G              A
I'm a rover, can you love me anyway?

        [Repeat first two measures of Riff 1]

Verse 2:
And if some suitor comes approaching
Will you let him through your door
What if I return half-broken
Will you still want me anymore?

        [Repeat Chorus]

        [Repeat first two measures of Riff 1]
        continue to play Riff 1 throughout the Bridge

Bridge:
Close your eyes and dream
and tell me what you see
Tell me what you want
Just tell me that you'll wait for me
Outros vídeos desta música
    2 exibições
      • ½ Tom
      • A
      • Bb
      • B
      • C
      • Db
      • D
      • Eb
      • E
      • F
      • F#
      • G
      • Ab
    • Adicionar à lista

    Afinação da cifra

    Afinador online

      0 comentários

      Ver todos os comentários

      Entre para o Cifra Club PRO

      Tenha acesso a benefícios exclusivos no App e no Site

      • Chega de anúncios

      • Badges exclusivas

      • Mais recursos no app do Afinador

      • Atendimento Prioritário

      • Aumente seu limite de lista

      • Ajude a produzir mais conteúdo

      Cifra Club Pro

      Aproveite o Cifra Club com benefícios exclusivos e sem anúncios
      Cifra Club Pro
      Aproveite o Cifra Club com benefícios exclusivos e sem anúncios
      Ops (: Contenido disponible sólo en portugués.
      OK