Cifra Club

Three Little Pigs

Green Jelly

Cifra: Principal (violão e guitarra)
Selo Cifra Club: esta cifra foi revisada para atender aos critérios oficiais da nossa Equipe de Qualidade.
tom: G
/ = Slide to higher note/chord
\ = Slide to lower note/chord  
h = hammer on
p = pull off
PM = Palm mute


Main Riff (played through most of the song) Use high
distortion in this riff (and the rest of the song)

Obs: Você pode tocar usando estes acordes 
E-----------------------------
B-----------------------------
G-----------------------------
D--------3---5-----5/7\5-3-5--
A----5---1---3-----3/5\3-1-3--
E----3------------------------


>>> ou usando estes acordes

e|--------------------------------------------------------|
B|--------------------------------------------------------|
G|--------------------------------------------------------|
D|--1--4--6--67646----------------------------------------|
A|--1--4--6--67646-x4-------------------------------------|
E|--1--4--6--67646----------------------------------------|


Well the first little piggy, well he was kinda hip.
He spent most of his days, just a dreamin of the city.
And then one day, he bought a guitar.
He moved to Hollywood, to become a star.
But, living on the farm, he knew nothing of the city.
Built his house out of straw, what a pity.
And then one day, jammin on some chords,
along came the wolf, knocking on his door.

(****** Chorus ******)
Little Pig, Little Pig, let me in.
NOT BY THE HAIR OF MY CHINNY, CHIN, CHIN!!
Little Pig, Little Pig, let me in.
NOT BY THE HAIR OF MY CHINNY, CHIN, CHIN!!


Obs: Você pode tocar usando estes acordes 
   ..PM............
E-----------------------------
B-----------------------------
G-----------------------------
D--5-5-5-5--1-1-1-1--5\3/5-1--
A--3-3-3-3--3-3-3-3--3\1/3-3--
E-----------------------------

>>> ou usando estes acordes

e|--------------------------------------------------------|
B|--------------------------------------------------------|
G|--------------------------------------------------------|
D|--5------6------7------8--------------------------------|
A|--5------6------7------8--------------------------------|
E|--5------6------7------8--------------------------------|

*PALM MUTE >> Each Note is played 16 times.


Well I'm huffin, I'm puffin, I'll blow your house in.
Huffin, puffin, blow your house in.
Huffin, puffin, blow your house in.
Huffin and a puffin and I'll blow your house in!!!.................


E-----------------------------
B-----------------------------
G-----------------------------
D--------3---5-----5/7\5-7-5--
A----5---1---3-----3/5\3-5-3--
E----3------------------------

Well the second little piggy, well he was kinda stoked.
He spent most of his time just a ganga smokin.
Huffin and a puffin down on Venice Beach.
Getting paid money for religious speech.
He built his shelter from what he garbage picked.
Mostly made up of old cans and sticks.
Then one day he was cranking out Bob Marley,
and along came the Wolf on his big bad Harley.

(Play Chorus)

E-------------------
B---5-3-3h5p3-5-3---
G-3-----------------
D-------------------
A-------------------
E-------------------


Well the third little piggy, the grade A student.
His daddy was a rock star, named Pig Nugent.
Earned his Masters Degree, from Harvard College.
Built his house from his architect knowledge.
A tri-level mansion, Hollywood Hills.
Daddy's rock stardom, paid for the bills.
And then one day came the old house smasher
the BIG BAD WOLF THE LITTLE PIGGY SLASHER.

(Play Chorus)

Well the big bad Wolf,
well he huffed, and he puffed, all that he could.
And low and behold the little piggy's house stood.
"IT'S MADE OUT OF CONCRETE!" the little piggy shouted.
The wolf just frowned, as he pouted.
So they called nine-eleven, like any piggy would.
The sent out RAMBO, just as fast, as they could.

(Rambo)
"YO, WOLF-FACE, I'M YOUR WORST NIGHTMARE, YOUR ASS IS MINE!!!"

(>>>>>>> shoot <<<<<<<)

Well the wolf fell dead as you can plainly see.
So thats to end the story, for you and me.
If you still give a listen, you just may, here a big wolf or little piggy
say.

(Chorus [a little different] )
Outros vídeos desta música
    6.846 exibições
      • ½ Tom
      • A
      • Bb
      • B
      • C
      • Db
      • D
      • Eb
      • E
      • F
      • F#
      • G
      • Ab
    • Adicionar à lista

    Afinação da cifra

    Afinador online

      0 comentários

      Ver todos os comentários

      Entre para o Cifra Club PRO

      Tenha acesso a benefícios exclusivos no App e no Site

      • Chega de anúncios

      • Mais recursos no app do Afinador

      • Atendimento Prioritário

      • Aumente seu limite de lista

      • Ajude a produzir mais conteúdo

      Cifra Club Pro

      Aproveite o Cifra Club com benefícios exclusivos e sem anúncios
      Cifra Club Pro
      Aproveite o Cifra Club com benefícios exclusivos e sem anúncios
      OK