Cifra Club

Highway Tune

Greta Van Fleet

Cifra (violão e guitarra)
Selo Cifra Club: esta cifra foi revisada para atender aos critérios oficiais da nossa Equipe de Qualidade.
tom: Bm
E|-----------------------------|---------------------------|-----------------------------|-|
B|-----------------------------|---------------------------|-----------------------------|-|
G|-----------------------------|---------------------------|-----------------------------|-|
D|-----2--4b--2------2---------|-----2-----2-----0---------|-----2--4b--2------2---------|-|
A|---------------4b------------|---------------------------|---------------4b------------|-|
E|--0-------------------4b--0--|-(0)----4-----3-----2b--0--|-(0)------------------4b--0--|-|

E|---------------------------|-----------------------------|---------------------------|-|
B|---------------------------|-----------------------------|---------------------------|-|
G|---------------------------|-----------------------------|---------------------------|-|
D|-----2-----2-----0---------|-----2--4b--2------2---------|-----2-----2-----0---------|-|
A|---------------------------|---------------4b------------|---------------------------|-|
E|-(0)----4-----3-----2b--0--|-(0)------------------4b--0--|-(0)----4-----3-----2b--0--|-|

E|-----------------------------|----------------------------|-----------------------------|-|
B|-----------------------------|------5--------5------------|-----------------------------|-|
G|-----------------------------|---/4-----4--3-----2p0------|-----------------------------|-|
D|-----2--4b--2------2---------|-----------------------2p0--|-----2--4b--2------2---------|-|
A|---------------4b------------|----------------------------|---------------4b------------|-|
E|-(0)------------------4b--0--|----------------------------|--0-------------------4b--0--|-|

E|---------------------------|-----------------------------|---------------------------|-|
B|---------------------------|-----------------------------|---------------------------|-|
G|---------------------------|-----------------------------|---------------------------|-|
D|-----2-----2-----0---------|-----2--4b--2------2---------|-----2-----2-----0---------|-|
A|---------------------------|---------------4b------------|---------------------------|-|
E|-(0)----4-----3-----2b--0--|-(0)------------------4b--0--|-(0)----4-----3-----2b--0--|-|



************************************
| p  Pull-off
| b  Bend (up half step)
| /  Slide up
************************************
Outros vídeos desta música
    215 exibições
      • ½ Tom
      • Am
      • Bbm
      • Bm
      • Cm
      • C#m
      • Dm
      • Ebm
      • Em
      • Fm
      • F#m
      • Gm
      • G#m
    • Adicionar à lista

    Afinação da cifra

    Afinador online

      0 comentários

      Ver todos os comentários

      Conseguiu tocar?

      0Tocaram0Ainda não

      Grave um vídeo tocando Highway Tune e nos envie!

      Entre para o Cifra Club PRO

      Tenha acesso a benefícios exclusivos no App e no Site

      • Chega de anúncios

      • Badges exclusivas

      • Mais recursos no app do Afinador

      • Atendimento Prioritário

      • Aumente seu limite de lista

      • Ajude a produzir mais conteúdo

      Cifra Club Pro

      Aproveite o Cifra Club com benefícios exclusivos e sem anúncios
      Cifra Club Pro
      Aproveite o Cifra Club com benefícios exclusivos e sem anúncios
      Ops (: Contenido disponible sólo en portugués.
      OK