Cifra Club

Santo Lugar

Grupo Logos

Cifra: Principal (violão e guitarra)
Tom: C
Intro: C, G/B, Gm/Bb, A7/4, A7, Dm7, G7, C, G7(#5)

C         G/B     Gm/Bb                   A7/4   A7
  Há de ter um lugar onde o tempo há de parar,
Dm7              C
  Onde a paz se faz real
      D      G      Am7 G/B
E o irreal amor não há não.
C           G/B            Gm/Bb                 A7/4   A7
  Sei que há, pois Deus o diz e eu não posso duvidar,
Dm7              C
  Mesmo que não possa imaginar,
  D            G     Am7 G/B
Espero o dia, sim, espero.

C        G/B            F     Dm7    G7
  Aleluia, aleluia, no céu eu vou morar.
C        G/B              F     Dm7       G7  G7(#5)
  Aleluia, aleluia, pois Cristo vem me buscar.

Solo:

E|---------------------------------------------------------------------------
B|--0---1---3------3---4---6-----6---5---3----3----------4-------4-----------
G|--------------0-------------0-------------0----0------4-------4-----------
D|-------------------------------------------------0---------3---------------
A|--3---0---2------2---3---5-----5---4---2-----------------------------------
E|-------------------------------------------------------3-------------------

E|---------------------------------------------------------------------------
B|-------4---------4---------------------------------------------------------
G|-------4---------4---------------------------------------------------------
D|--3--------3---------0-----------------------------------------------------
A|---------------------------------------------------------------------------
E|---------------------------------------------------------------------------

C         G/B     Gm/Bb                    A7/4   A7
  Há de ter um lugar onde lágrimas não rolarão,
Dm7             C            D
  Fracassados dias maus, da vida em caos,
   G     Am7 G/B
Jamais verei, pois,
C         G/B         Gm/Bb                        A7/4   A7
  No lugar, santo lugar, onde o inimigo ausente estará,
Dm7               C
  Face a face a Cristo verei,
   D                  G     Am7 G/B
E muitos verão, por isso eu canto...
exibições 17.318
Acordes para:
    Colaboração e revisão:
    • Pedro Henrique
    • Jan Benjamin

    0 comentários

    mostrar mais comentários

    Conseguiu tocar?

    2 tocaram 1 ainda não

    Grave um vídeo tocando Santo Lugar e mande pra gente!

    00:00 / 00:00
    outros vídeos desta música
    repetir qualidade Automático
    Outros vídeos desta música
    00:00 / 00:00
    Automático
    OK