Cifra Club

Aprenda

Quem Ama Uma Vez Não Deixa de Amar

Guilherme & Santiago

Cifra: Principal (violão e guitarra)
tom: E
Intro.:
e|-----------------------------------------------------------
B|-------0------------------2-------------0------------------
G|-----2---2--------------4---4---------2---2----------------
D|---2-------2----------4------4------2-------2--------------
A|-0-------------4--2---------------0-------------4--2-------
E|--------------------------------4--------------------------


                  A9

Perdoa a minha pressa mas, preciso te dizer                    e|-------0-------
Se receber este bilhete por um tempo não vai mais me ver       B|---------------
Estou partindo agora e aonde eu vou você não pode ir           G|-----2---------
Não chegou a sua hora, seja forte tente resistir               D|---2----------- (...)
                                                               A|-0-------------
                                                               E|---------------
                                                             




(2° voz)(não dá pra me amar, já não pode me tocar)             e|----------------------
                                                               B|----------------------
                                                               G|----------------------
                                                               D|----------------------   (2x)
                                                               A|------------2/4---2---
                                                               E|---2--4--5------------



Você tem que seguir, seu caminho sem mim                       e|--------7---------7--------7-------
E pra esquecer da gente, olhar pra frente um conselho vou dar  B|-----------------------------------  
                                                               G|------9---9-----9---9-----9---9---- 
                                                               D|-----------------------------------
                                                               A|----7---------7----------7---------
                                                               E|-----------------------------------






            

Guarde uma foto ou duas, um perfume, algo assim    
Jogue fora o resto pra não se lembrar mais de mim  e|--------7---------------------2------------7---
Com o tempo as coisas voltam a rotina normal       B|--------------------0--------------------------
                                                   G|------9---9-------2---2-----4---4-------9----9-  (...)
                                                   D|----------------2------------------------------
                                                   A|----7---------0----------2-----------7---------
                                                   E|-----------------------------------------------

 A9                          B9
Só uma coisa nunca mais vai mudar
 A9                          B9
Quem ama uma vez não deixa de amar






Você tem que seguir, seu caminho sem mim                       e|--------7---------7--------7-------
E pra esquecer da gente, olhar pra frente um conselho vou dar  B|-----------------------------------  
                                                               G|------9---9-----9---9-----9---9---- (...)
                                                               D|-----------------------------------
                                                               A|----7---------7----------7---------
                                                               E|-----------------------------------




Guarde uma foto ou duas, um perfume, algo assim    
Jogue fora o resto pra não se lembrar mais de mim  e|--------7---------------------2------------7---
Com o tempo as coisas voltam a rotina normal       B|--------------------0--------------------------
                                                   G|------9---9-------2---2-----4---4-------9----9-
                                                   D|----------------2------------------------------
                                                   A|----7---------0----------2-----------7---------
                                                   E|-----------------------------------------------

 A9                          B9
Só uma coisa nunca mais vai mudar
 A9                          B9
Quem ama uma vez não deixa de amar





       Gm                                E5
Vou fazer uma promessa, um dia eu volto a te encontrar
   
         Gm                              B
No momento adeus, se cuida, de quem sempre vai te amar

     Gm                 A                A9         
Em PS não esqueça de seguir o que eu pedi...



Guarde uma foto ou duas, um perfume, algo assim

(solo)


Guarde uma foto ou duas, um perfume, algo assim    
Jogue fora o resto pra não se lembrar mais de mim  e|--------7---------------------2------------7---
                                                   B|--------------------0--------------------------
                                                   G|------9---9-------2---2-----4---4-------9----9-
                                                   D|----------------2------------------------------
                                                   A|----7---------0----------2-----------7---------
                                                   E|-----------------------------------------------
Composição de Lucas Rocha
Colaboração e revisão:
  • André Castro
58.372 exibições
    • ½ Tom
    • A
    • Bb
    • B
    • C
    • Db
    • D
    • Eb
    • E
    • F
    • F#
    • G
    • Ab
  • Adicionar à lista

    0 comentários

    Ver todos os comentários

    Conseguiu tocar?

    2 Tocaram 0 Ainda não

    Grave um vídeo tocando Quem Ama Uma Vez Não Deixa de Amar e nos envie!

    00:00 / 00:00
    outros vídeos desta música
    repetir qualidade Automático
    Outros vídeos desta música
    00:00 / 00:00
    Automático

    Cifra Club Pro

    Aproveite o Cifra Club com benefícios exclusivos e sem anúncios
    Cifra Club Pro
    Aproveite o Cifra Club com benefícios exclusivos e sem anúncios
    OK