Cifra Club

Bajan

Gustavo Cerati

Cifra: Versão 2 (violão e guitarra)
Selo Cifra Club: esta cifra foi revisada para atender aos critérios oficiais da nossa Equipe de Qualidade.
tom: C#m
Intro:

E|-----0----------0---------| I
B|--------0----2------------| I
G|-----------0| -------------I
D|--2-----------------------| I (E  x4)
A|--2-----------------------| I
E|--0----------------0--^3--| I

           E           F#m 
           TENGO TIEMPO PARA SABER

    C#m          G#7  -9  B 
       B  LO QUE SUENO CONCLUYE EN ALGO.

       E           F#m 
       NO TE APUD S  YA MAS LOCO

       C#m          G#7  -9    B 
       PORQUE ES ENTONCES  CUANC  A S HORAS

E|-------------C| ORO-----------------

        C#m       G#m  
        BAJAN  EL DIA

           B      C    C#m 
        ES VIDRIO B N G  

        C#m      G#m  
        BAJAN A  NOCHE

            B     C  C#m 
        TE OCULTA A  VOZ

             C 
        Y ADEMAS

        A    G#m   F#m 
        VOS QUED S G  

           C#m       C#mm aj7
        DESPACIO  TAMBIEN

                        C#m  G#m   E  A 
        PODES HALA R A  LUNA.

E|-------------------------------|

        E          F#m 
        VIEJO ROBLE DEL CAE NO

        C#m       G#7  -9     B 
        TUS HOJAS BEM PD  SE AGITAN ALGO

        E        F#m 
        NENA NENA QUE BIEN TE VES

        C#m           G#7  -9
        CUANTO EN TUS OJOS
             B 
        NO IMPORTA B  A S HORAS


E|-------------C| ORO---------------

ACORDES:

   E    F#m    C#m    G#7  -9   B    C   C#mm aj7   G#m    A 
E|---0----2------4------5---------2----3----4----------4-----0|
B|---0----2------5------4---------4----5----5----------4-----0|
G|---1----2------6------5---------4----5----5----------4-----6|
D|---2----4------6------4---------4----5----6----------6-----7|
A|---2----4------4------6---------2----3----4----------6-----7|
E|---0----2------x------x---------x----x----X----------4-----5|
Outros vídeos desta música
    1.523 exibições
      • ½ Tom
      • Am
      • Bbm
      • Bm
      • Cm
      • C#m
      • Dm
      • Ebm
      • Em
      • Fm
      • F#m
      • Gm
      • G#m
    • Adicionar à lista

    Afinação da cifra

    Afinador online

      0 comentários

      Ver todos os comentários

      Entre para o Cifra Club PRO

      Tenha acesso a benefícios exclusivos no App e no Site

      • Chega de anúncios

      • Badges exclusivas

      • Mais recursos no app do Afinador

      • Atendimento Prioritário

      • Aumente seu limite de lista

      • Ajude a produzir mais conteúdo

      Cifra Club Pro

      Aproveite o Cifra Club com benefícios exclusivos e sem anúncios
      Cifra Club Pro
      Aproveite o Cifra Club com benefícios exclusivos e sem anúncios
      Ops (: Contenido disponible sólo en portugués.
      OK