Cifra Club

Lago En El Cielo

Gustavo Cerati

Cifra: Principal (violão e guitarra)
Selo Cifra Club: esta cifra foi revisada para atender aos critérios oficiais da nossa Equipe de Qualidade.
tom: G
[Tab - Intro]

E|-----------------------------------------|
B|----10--10------8--8-----7--7----7--7----|
G|-----------------------------------------|
D|--10--10--10--9--9--9--7--7--7--7--7--7--| (3x)
A|-----------------------------------------|
E|-----------------------------------------|

( C7M  D  C7M )

E|------------------------------------------|
B|--0----1----0-----------------------------|
G|------------------0-----------------------|
D|------------------------------------------|
A|------------------------------------------|
E|------------------------------------------|

( C7M  D  C7M )
P.m
E|------------------------------------------|
B|-------------------7----------------------|
G|------------7-----------------------------|
D|------------------------------------------|
A|------------------------------------------|
E|------------------------------------------|

( C7M )
E|------------------------------------------|
B|--0----1----0-----------------------------|
G|------------------0-----------------------|
D|------------------------------------------|
A|------------------------------------------|
E|------------------------------------------|

( D )

C7M                D  C7M
Un lago en el cielo
                D  C7M
Quiero ser suave
                 D    C7M
Para evitar tu dureza

E|------------------------------------------|
B|--0----1----0-----------------------------|
G|------------------0-----------------------|
D|------------------------------------------|
A|------------------------------------------|
E|------------------------------------------|

( D  C7M )

              D  C7M
Apago tu fuego
               D  C7M
Enciende mi agua
                  D    C7M  D
Puede que no haya certezas

Bm        C    D
Vamos despacio
            Bm    C
Para encontrarnos
             Am           D     Em
El tiempo es arena en mis manos
             Am    D
Sé  por tus marcas
            Bm   Am
Cuanto has amado
          C           D
Más de lo que prometiste

[Primeira Parte]

C7M          D  C7M
Hoy te apuré

(Estaba tan sensible)

Son espejismos que aumentan la sed

Si adelanté no me hagas caso

A veces no puedo con la soledad

[Refrão]

Bm        C    D
Vamos despacio
            Bm    C
Para encontrarnos
             Am           D     Em
El tiempo es arena en mis manos
              Am  D
Sé por tus marcas
            Bm    Am
Cuanto has dejado
          C             D
Para  olvidar lo que hiciste
   Am             C            D
Sentir algo que nunca sentiste

E|------------------------------------------|
B|----10--10------8--8-----7--7----7--7-----|
G|------------------------------------------|
D|--10--10--10--9--9--9--7--7--7--7--7--7---| (3x)
A|------------------------------------------|
E|------------------------------------------|

F          C          G
Sos el paisaje más soñado
      F              C           G
Y sacudiste las más sólidas tristezas
          F        C                 G
Y respondiste cada vez que te he llamado

Bm        C    D
Vamos despacio
            Bm    C
Para encontrarnos
             Am           D     Em
El tiempo es arena en mis manos
             Am     D
Un lago en el cielo
         Bm  C
Es mi regalo
          Am               D
Para olvidar lo que hiciste
    Am             C            D
Y sentir algo que nunca sentiste
         Am
Hacerte sentir
         C           D
Algo que nunca sentiste

( Am  C  Bm )
( Am  C  Em )
( C  G  D )

C  G  D
Dududu du du du du du du du
Outros vídeos desta música
    143.946 exibições
      • ½ Tom
      • A
      • Bb
      • B
      • C
      • Db
      • D
      • Eb
      • E
      • F
      • F#
      • G
      • Ab
    • Adicionar à lista

    Afinação da cifra

    Afinador online

      0 comentários

      Ver todos os comentários

      Entre para o Cifra Club PRO

      Tenha acesso a benefícios exclusivos no App e no Site

      • Chega de anúncios

      • Badges exclusivas

      • Mais recursos no app do Afinador

      • Atendimento Prioritário

      • Aumente seu limite de lista

      • Ajude a produzir mais conteúdo

      Cifra Club Pro

      Aproveite o Cifra Club com benefícios exclusivos e sem anúncios
      Cifra Club Pro
      Aproveite o Cifra Club com benefícios exclusivos e sem anúncios
      Ops (: Contenido disponible sólo en portugués.
      OK