Cifra Club

As Cordas Do Coração

Harpa Cristã

Cifra: Versão 2 (violão e guitarra)
tom: A
E|---------------0--|------7-----2-----0-|-------------0-2-|-3---5-2-0-----0-|
B|-------------7----|-10------10-3---3---|-3-------2-----2-|-5---2-2-2---3---|
G|-------------7-12-|-11---11-11---2---2-|---2---2---2-6-2-|-6-----2---2---2-|
D|------------------|-0--7----7--0-4---4-|-0-4---4-2-5---5-|---7---5-2-----5-|
A|------------------|----9-0--9------0---|-----0-------0---|-7---0-------0---|
E|------------------|--------------------|-----------------|-----------------|

E|-2-----------2-3-|------7-9--10---9-7--|---------------------|
B|-3-----------3-3-|-10---7-7--7----7----|-10-------7----7--7--|
G|---2---2---2---2-|-11--------7----7-11-|-11-------7----------|
D|-0-4---4-0-4---4-|-0--7-9-11----7---9--|-0--7---7----7-7--7--|
A|-----0-------0---|----9-9-9--9---------|----9-0-9----9-------|
E|-----------------|---------------------|----------10---10-10-|

E|-0------9-7--------|-5-----------2-0--|--------------10-10----|
B|-----10-------10-9-|-2-----------3----|-10-----------7--7--12-|
G|-6---6--9-7---9--7-|-2-------2-----12-|-11-----------------11-|
D|---7-7--7---9-11-9-|-------2----------|-----7--7--7-----------|
A|-0-7-0--7---7-7--7-|-0---4---0--------|-----9--9--9-----------|
E|----------0--------|------------------|-----10-10-10----------|

E|-9-------------0--2-|-3-3-3-0--9-7-5-7-|----------------0--|
B|-10---------------2-|-3-3-3-10-8-8-8-8-|-7------------7----|
G|-12--0--0--0--------|-0-----0----0-----|-7------------7-12-|
D|-----11-11-11--11---|-2-1-2----7-----7-|----------7--------|
A|-----12-12-12-------|----------0-0-7-0-|--------9----------|
E|-----12-12-12-------|-----0-9------9---|-10--10------------|

E|--------------10-12-10-|-7------------10-9-----|----2---0-2-0-3---|
B|-10-----------7--7--7--|-8------------12----12-|-10-3-3---3-2-2-2-|
G|-11--------------------|-----7--7--7-----14-12-|-11-2---0-2-0---0-|
D|-----7--7--7-----------|-----9--9--9-----------|-0--0-4-------2---|
A|-----9--9--9-----------|-----10-10-10----------|-12---0-0-0-0-0-0-|
E|-----10-10-10----------|-----------------------|------------------|

E|--------------|
B|-3------------|
G|-2------------|
D|-4------------|
A|-5---0--------|
E|--------------|

00:00 / 00:00
Outros vídeos desta música
Repetir
Outros vídeos desta música
Compositor não encontrado.
Colaboração e revisão:
  • Helon Oliveira
2.770 exibições
    • ½ Tom
    • A
    • Bb
    • B
    • C
    • Db
    • D
    • Eb
    • E
    • F
    • F#
    • G
    • Ab
  • Adicionar à lista

    0 comentários

    Ver todos os comentários

    Entre para oCifra Club PRO

    Tenha acesso a benefícios exclusivos no App e no Site

    • Chega de anúncios

    • Prioridade de compra em lançamentos

    • Mais recursos no app do Afinador

    • Atendimento Prioritário

    • Descontos nos produtos Cifra Club

    • Ajude a produzir mais conteúdo

    00:00 / 00:00

    Cifra Club Pro

    Aproveite o Cifra Club com benefícios exclusivos e sem anúncios
    Cifra Club Pro
    Aproveite o Cifra Club com benefícios exclusivos e sem anúncios
    OK