Cifra Club

Black Friday Cifra Club

Ao Findar Do Dia

Harpa Cristã

Cifra: Principal (violão e guitarra)
tom: E
E|-0-------7---0-|-0-------------|-9----9---------|--------------|
B|-0----0--0---0-|-10---10-9---7-|---------12--9--|-9----7--7----|
G|-13---11-8-----|-6----8--9---8-|-9----9--9---9--|-9----9--8----|
D|------13-7---6-|------9--9---9-|-11------9---9--|-8----8--9----|
A|------12-------|-9-------7-----|-12---12-11-----|--------------|
E|-12------------|------7------7-|-------------12-|-9----9--7----|

E|------7--7---0--|------9--9------|-7----11-11--9--|-7---6---7----|
B|-7-----------9--|-9-----------11-|-7----7---------|-4-------4----|
G|-8----8--9------|-9----9--11--11-|---------9---9--|-----6--------|
D|----------------|---------8---11-|-9----9---------|-4---4---4----|
A|-9----9--11--11-|-11---11-9------|---------11--11-|--------------|
E|-7----7--12--12-|-9----9------12-|-11---7--12--12-|---------7----|

E|-12------11---|-9-------0----|-------------2-|-0-------0----|-0-------0----|
B|--------------|---------12---|-10---9--9---2-|-0---4---0----|-2-------0----|
G|-9-------9----|-9------------|-11---9--9---2-|-----4---1----|-2-------1----|
D|-9------------|--------------|-9----9--9-----|-6---4---2----|---------2----|
A|-11------11---|-12------11---|-------------0-|--------------|-0------------|
E|---------12---|---------12---|-11---12-12----|-7---7--------|--------------|

E|--------------|
B|--------------|
G|--------------|
D|--------------|
A|--------------|
E|--------------|

00:00 / 00:00
Outros vídeos desta música
Repetir
Outros vídeos desta música
Composição de Antonio Torres Galvão / Orlando V.N
Colaboração e revisão:
  • Helon Oliveira
6.933 exibições
    • ½ Tom
    • A
    • Bb
    • B
    • C
    • Db
    • D
    • Eb
    • E
    • F
    • F#
    • G
    • Ab
  • Adicionar à lista

    0 comentários

    Ver todos os comentários

    Entre para oCifra Club PRO

    Tenha acesso a benefícios exclusivos no App e no Site

    • Chega de anúncios

    • Prioridade de compra em lançamentos

    • Mais recursos no app do Afinador

    • Atendimento Prioritário

    • Descontos nos produtos Cifra Club

    • Ajude a produzir mais conteúdo

    00:00 / 00:00

    Cifra Club Pro

    Aproveite o Cifra Club com benefícios exclusivos e sem anúncios
    Cifra Club Pro
    Aproveite o Cifra Club com benefícios exclusivos e sem anúncios
    OK