Cifra Club

Black Friday Cifra Club

Com Tua Mão Segura

Harpa Cristã

Cifra: Principal (violão e guitarra)
tom: G
E|------|-------|------|-------|-----8-|-6---4-|-4----|-3----|-6----|-3---4-|
B|-4----|-0---4-|-6----|-----4-|-4---4-|-4---4-|-4----|-4----|-4----|-4---4-|
G|-5----|-7---5-|-6----|-----5-|-5-----|-------|-5----|-3----|-0----|-3---5-|
D|-6----|-6---6-|-6----|-----6-|-6---6-|-6---6-|------|------|------|-------|
A|------|-------|------|-------|-------|-------|-6----|-6----|-6----|-6---6-|
E|-4----|-4---4-|-4----|-----4-|-4---4-|-8---8-|------|------|------|-------|

E|-6----|-8----|-------|-3------|------|------|------|-------|------|-------|
B|-4----|-4----|-4---4-|-3----6-|-4----|------|-4----|-6---4-|-6----|-----4-|
G|------|------|-------|-3----7-|------|-6----|-5----|-7---5-|-6----|-----5-|
D|-5----|-6----|-5---5-|------6-|-5----|------|-6----|-6---6-|-6----|-----6-|
A|-6----|------|-------|--------|-6----|------|------|-------|------|-------|
E|------|-4----|-6---6-|-6----6-|------|------|-4----|-4---4-|-4----|-----4-|

E|-4---8-|-11--9--|-8----|------|-11---|-9---8-|------|-6----|-------|-8----6-|
B|-4---4-|--------|------|-11---|------|-----4-|-6----|-6----|-9---8-|-8----8-|
G|-------|-8---10-|-8----|-8----|-8----|-8-----|-6----|-6----|-8---8-|-8----6-|
D|-6---6-|--------|------|------|------|-5---6-|-6----|------|-10--8-|--------|
A|-------|-11--11-|-11---|-10---|-11---|-------|------|------|-6---6-|-6----6-|
E|-8---4-|-8---9--|-11---|-11---|-8----|-6---4-|-9----|-6----|-------|--------|

E|-4----|------|------|
B|------|------|------|
G|-5----|------|------|
D|------|------|------|
A|------|------|------|
E|-4----|------|------|

G                              D
Com Tua mão, segura bem a minha, 
                              G
Pois eu tão fraco sou, ó Salvador! 
                    G7          C
Que não me atrevo a dar nem um só passo 
    G       D               G
Sem Teu amparo, meu Jesus Senhor!

G                             D
Com Tua mão, segura bem a minha,
                            G
E mais e mais unido a Ti, Jesus.
                 G7           C
Ó traze-me, que nunca me desvie
   G       D                G
De Ti, Senhor, a minha vida e luz!

G                            D
Com Tua mão, segura bem a minha,
                            G
E, pelo mundo, alegre seguirei:
                G7                 C
Mesmo onde as sombras caem mais escuras
   G           D             G
Teu rosto vendo, nada temerei.

  G                           D
E, se chegar à beira desse rio,
                                G
Que Tu por mim quiseste atravessar,
               G7             C
Com Tua mão segura bem a minha,
     G           D             G
E sobre a morte eu hei de triunfar.

    G                         D
Quando voltares esses céus rompendo,
                            G
segura bem a minha mão, Senhor,
               G7                C
E, meu Jesus, ó leva-me contigo,
     G           D            G
Para onde eu goze Teu eterno amor.
00:00 / 00:00
Outros vídeos desta música
Repetir
Outros vídeos desta música
Composição de H. Maxwell Wright
Colaboração e revisão:
  • Uesley Souza
  • Wellington Martins
  • Helon Oliveira
73.735 exibições
    • ½ Tom
    • A
    • Bb
    • B
    • C
    • Db
    • D
    • Eb
    • E
    • F
    • F#
    • G
    • Ab
  • Adicionar à lista

    0 comentários

    Ver todos os comentários

    Entre para oCifra Club PRO

    Tenha acesso a benefícios exclusivos no App e no Site

    • Chega de anúncios

    • Prioridade de compra em lançamentos

    • Mais recursos no app do Afinador

    • Atendimento Prioritário

    • Descontos nos produtos Cifra Club

    • Ajude a produzir mais conteúdo

    00:00 / 00:00

    Cifra Club Pro

    Aproveite o Cifra Club com benefícios exclusivos e sem anúncios
    Cifra Club Pro
    Aproveite o Cifra Club com benefícios exclusivos e sem anúncios
    OK