Cifra Club

Ide Segar

Harpa Cristã

Cifra: Tab (violão e guitarra)
Selo Cifra Club: esta cifra foi revisada para atender aos critérios oficiais da nossa Equipe de Qualidade.
tom: Bb
E|-----------------|-6-5-------10--------|----8--------1---1-3-5-|
B|-------------6-6-|---5-11-13-----13-11-|-11----11-8--3---------|
G|-------------7-7-|-7---10-10-10--10-10-|-0--0--0--8--3---------|
D|-------------8-8-|-----0---------0--0--|-13-13-13-8------------|
A|-----------------|-8-8-13-12-13--13-13-|-------------1---------|
E|-------------6-6-|-6-8----13-----------|-11-11-11-11-----------|

E|-6-------------10-8-6-|-8----------------------|-6----6--8--10--8--6--|
B|-3-3-3-3-3-3----------|----------------------6-|---10-6-----6---6--6--|
G|-3-3-3-3-3-3----------|-10-10-10-9--9-10--10-8-|-7-8-----10-----------|
D|-5-5-5-5-5-5----------|-7--7--7-----8-7---7----|------8--7--8---8--8--|
A|----------------------|-8--8--8--10---8---8--8-|-8-8-----8------------|
E|----------------------|----------8--8----------|-6-8--10--------10-10-|

E|-6-8-6-------11-11-11-|-10--------------8-10-8-|-6-------------6-8-10-|
B|-8-8-8-8-6---8--8--8--|-6--6-6------6-----6----|-3-3-3-4-4-3----------|
G|-8-8-8-8-7------------|--------7-8--7---8----8-|-3-3-3----------------|
D|-------8-8------------|-8--8-8-8-10-----7-7--7-|-------5-5-3----------|
A|-6-6-6-6--------------|-8--8-8-8-8--8---8-8--8-|----------------------|
E|---------6------------|------------------------|-6--------------------|

E|-11-----------------11-10-8-|-10-----------------10-8-6-|-8-------------8-6-8-|
B|-8--8--8--8--8--8-----------|---------------------------|-6-6-6-5-------------|
G|----------------------------|-10-10-10-10-10-10---------|---------9-10--------|
D|-8--8--8--8--8--8-----------|-8--8--8--8--8--8----------|-7-7-7-5-8-7---------|
A|----------------------------|---------------------------|-8-8-8-----8---------|
E|-11-11-11-11-11-11----------|---------------------------|-------8-8-----------|

E|-10-----------------|-6----6--8--10--8--6--|-6-8-6-------11-11-11-|
B|-6--6-6-6-6-6---6-6-|---10-6-----6---6--6--|-8-8-8-8-6---8--8--8--|
G|------------------8-|-7-8-----10-----------|-8-8-8-8-7------------|
D|-8--8-8-8-8-8---7-7-|------8--7--8---8--8--|-------8-8------------|
A|----------------8-8-|-8-8-----8------------|-6-6-6-6--------------|
E|-6--6-6-6-6-6-------|-6-8--10--------10-10-|---------6------------|

E|-10--------------8-10-8-|-6----------------|
B|-6--6-6------6-----6----|------------------|
G|--------7-8--7---8----8-|-7-7-7-8--8--7----|
D|-8--8-8-8-10-----7-7--7-|-8-8-8------------|
A|-8--8-8-8-8--8---8-8--8-|-------10-10-8----|
E|------------------------|-6----------------|

Outros vídeos desta música
    80 exibições
      • ½ Tom
      • A
      • Bb
      • B
      • C
      • Db
      • D
      • Eb
      • E
      • F
      • F#
      • G
      • Ab
    • Adicionar à lista

    Afinação da cifra

    Afinador online

      0 comentários

      Ver todos os comentários

      Entre para o Cifra Club PRO

      Tenha acesso a benefícios exclusivos no App e no Site

      • Chega de anúncios

      • Badges exclusivas

      • Mais recursos no app do Afinador

      • Atendimento Prioritário

      • Aumente seu limite de lista

      • Ajude a produzir mais conteúdo

      Cifra Club Pro

      Aproveite o Cifra Club com benefícios exclusivos e sem anúncios
      Cifra Club Pro
      Aproveite o Cifra Club com benefícios exclusivos e sem anúncios
      Ops (: Contenido disponible sólo en portugués.
      OK