Cifra Club

Deslumbrante

Hugo e Gabriel

Cifra: Principal
exibições 253.071
Tom: D#
Intro:

     Cm                    Bb          Cm                    Bb
E|---------------------------------|---------------------------------------|
B|-6/8-6-4-4-6/8-6-4-1/3-----------|-6/8-6-4-4-6/8-6-4-1/3-----4/11--11/13~|
G|--------5------------------------|--------5------------------------------|
D|---------------------------------|---------------------------------------|
A|---------------------------------|---------------------------------------|
E|---------------------------------|---------------------------------------|


Cm
  Ainda estar por vir alguém
            Bb
Com teu sorriso
                                    Ab
Que me tire do serio fale o que eu preciso
                                    G4  G
Que arranque essa dor que possa me curar

Cm                                  Bb
  Eu sonho toda noite peço o dia inteiro
                              Ab
Uma hora é saudade outra desespero
                                    G4 G
É fato que eu te amo e não da pra negar

Fm
 Você nunca me ouviu
               Cm
Não soube me dizer
                             Ab
O que acontecia entre eu e você
                                    G4 G
Não me deu outra chance para te provar, na na rum na na na

Refrão:
Cm                                     Bb
  Me perco nesse teu jeito tão deslumbrante

É coisa de outro mundo
             Ab
É tudo fascinante

Me lembro dos momentos
              G                   Cm
Me pego a chorar, na na rum na na na
                                    Bb
Cada lugar que eu olho vejo se te encontro
                                     Ab
Se me desse outra chance eu estaria pronto
                                    G                  Cm
Pra te dar o valor que não pude te dar na na rum na na na
Solo:


     Cm                    Bb          Cm                    Bb
E|---------------------------------|---------------------------------------|
B|-6/8-6-4-4-6/8-6-4-1/3-----------|-6/8-6-4-4-6/8-6-4-1/3-----4/11--11/13~|
G|--------5------------------------|--------5------------------------------|
D|---------------------------------|---------------------------------------|
A|---------------------------------|---------------------------------------|
E|---------------------------------|---------------------------------------|


Fm
 Você nunca me ouviu
               Cm
Não soube me dizer
                             Ab
O que acontecia entre eu e você
                                    G4 G
Não me deu outra chance para te provar, na na rum na na na

Refrão:
Cm                                     Bb
  Me perco nesse teu jeito tão deslumbrante
É coisa de outro mundo
             Ab
É tudo fascinante
Me lembro dos momentos
              G                   Cm
Me pego a chorar, na na rum na na na
                                    Bb
Cada lugar que eu olho vejo se te encontro
                                     Ab
Se me desse outra chance eu estaria pronto
                                    G                  Cm
Pra te dar o valor que não pude te dar na na rum na na na

Cm                                     Bb
  Me perco nesse teu jeito tão deslumbrante
É coisa de outro mundo
             Ab
É tudo fascinante
Me lembro dos momentos
              G                   Cm
Me pego a chorar, na na rum na na na
                                    Bb
Cada lugar que eu olho vejo se te encontro
                                     Ab
Se me desse outra chance eu estaria pronto
                                    G                  Cm
Pra te dar o valor que não pude te dar na na rum na na na

Cm
Ainda estar por vir alguém
            Bb
Com teu sorriso
                                    Ab
Que me tire do serio fale o que eu preciso
                                      G
Que arranque essa dor que possa me curar

( Cm )
Acordes para:
    Colaboração e revisão:

    0 comentários

      mostrar mais comentários

      Conseguiu tocar?

      23tocaram3ainda não

      Grave um vídeo tocando Deslumbrante e mande pra gente!

      00:00 / 00:00
      outros vídeos desta música
      repetirqualidadeautomática
      Outro vídeos desta música
        00:00 / 00:00
        automática
        OK