Cifra Club

Tema De Albeniz

Isaac Albeniz

Cifra: Principal (violão e guitarra)
Selo Cifra Club: esta cifra foi revisada para atender aos critérios oficiais da nossa Equipe de Qualidade.
tom: C
E|-----0-----0-----0-----0-----0-----0-----|
B|-----------------------------------------|
G|-----------------------------------------| x3
D|--------2-----3-----0-----2--------------|
A|--0-----------------------------3--------|
E|-----------------------------------------|

E|-----0-----0-----0-------0-----0-----0--|
B|----------------------------------------|
G|----------------------------------------|
D|--0-------------------0-----------------|
A|--------2-----3-------------2-----3-----|
E|----------------------------------------|

E|-----0-----0-----0-----0-----0-----0-----|
B|-----------------------------------------|
G|-----------------------------------------| x3
D|--------2-----3-----0-----2--------------|
A|--0-----------------------------3--------|
E|-----------------------------------------|

E|-----0-----0-----0-------0-----0-----0---|
B|-----------------------------------------|
G|-----------------------------------------|
D|--0--------------------------------------|
A|--------2-----3-------0------------------|
E|----------------------------3------1-----|

E|-----0-----0-----0-----0-----0-----0-----|
B|-----------------------------------------|
G|-----------------------------------------| x2
D|--------2-----3-----0-----2--------------|
A|--------------------------------2--------|
E|--0--------------------------------------|

E|-----0-----0-----0-----0-----0-----0-----|
B|-----------------------------------------|
G|--------------------------------0--------|
D|--------------0-----2-----3--------------|
A|--------2--------------------------------|
E|--0--------------------------------------|

E|-----0-----0-----0-----0-----0-----0-----|
B|-----------------------------------------|
G|-----------------------------------------|
D|--2-----3-----0-----2--------------------|
A|--------------------------3-----2--------|
E|-----------------------------------------|

E|-----0-----0-----0-----0-----0-----0-----|
B|-----------------------------------------|
G|-----------------------------------------| x2
D|--------2-----3-----0-----2--------------|
A|--------------------------------2--------|
E|--0--------------------------------------|

E|-----0-----0-----0-----0-----0-----0-----|
B|-----------------------------------------|
G|--------------------------0--------------|
D|--------0-----2-----3-----------2--------|
A|-----------------------------------------|
E|--0--------------------------------------|

E|-----0-----0-----0-----0-----0-----0-----|
B|-----------------------------------------|
G|-----------------------------------------|
D|--3-----0-----2------------0-------------|
A|--------------------3-----------2--------|
E|-----------------------------------------|

E|-----------------------------------------|
B|-----------------------------------------|
G|--------------------2--------------------|
D|-----------------------------------------|
A|--0-----------------0--------------------|
E|-----------------------------------------|
Outros vídeos desta música
    11 exibições
      • ½ Tom
      • A
      • Bb
      • B
      • C
      • Db
      • D
      • Eb
      • E
      • F
      • F#
      • G
      • Ab
    • Adicionar à lista

    Afinação da cifra

    Afinador online

      0 comentários

      Ver todos os comentários

      Conseguiu tocar?

      0Tocaram0Ainda não

      Grave um vídeo tocando Tema De Albeniz e nos envie!

      Entre para o Cifra Club PRO

      Tenha acesso a benefícios exclusivos no App e no Site

      • Chega de anúncios

      • Badges exclusivas

      • Mais recursos no app do Afinador

      • Atendimento Prioritário

      • Aumente seu limite de lista

      • Ajude a produzir mais conteúdo

      Cifra Club Pro

      Aproveite o Cifra Club com benefícios exclusivos e sem anúncios
      Cifra Club Pro
      Aproveite o Cifra Club com benefícios exclusivos e sem anúncios
      Ops (: Contenido disponible sólo en portugués.
      OK