Cifra Club

É Natal

Israel Salazar

Cifra: Principal (violão e guitarra)
Selo Cifra Club: esta cifra foi revisada para atender aos critérios oficiais da nossa Equipe de Qualidade.
tom: A
[Intro] A  A4

[Primeira Parte]

         Bm7  A/C#
Um novo dia,  um novo tempo
 D7M                E
Tempo de deixar nascer
A          Bm7     A/C#
Olhar pra dentro, ver esperança
    D                  E
Naquele que faz tudo florescer

[Refrão]

     D                   A/C#
É natal! Deus Filho foi dado a nós
     D                   F#m7
É natal! Deus Pai um presente nos deu
     D        A/C#
É natal! Emanuel
                 Bm7  D  E
Deus presente conosco está
     A   D/A  A 
É natal!

[Solo 1] A  D/A  E

[Tab - Solo 1]

E|------------------------------------------|
B|-1/2-3-5-3-2-----2------------------------|
G|-------------2-4---4-2\1------------------|
D|-------------------------2~---------------|
A|------------------------------------------|
E|------------------------------------------|

[Primeira Parte]

A        Bm7 A/C#
Um novo dia, um novo tempo
 D                  E4  E
Tempo de deixar nascer
A          Bm7     A/C#
Olhar pra dentro, ver esperança
    D                  E
Naquele que faz tudo florescer

[Pré-Refrão]

     D                   A
É natal! Deus Filho foi dado a nós
     D                   F#m7
É natal! Deus Pai um presente nos deu
     D        A/C#     
É natal! Emanuel
                 Bm7     E4  E
Deus presente conosco está

     D                   A
É natal! Deus Filho foi dado a nós
     D                   F#m7
É natal! Deus Pai um presente nos deu
     D        A/C#       
É natal! Emanuel
                 Bm7  D  E  F#4
Deus presente conosco está

     E                   B/D#
É natal! Deus Filho foi dado a nós
     E                   G#m7
É natal! Deus Pai um presente nos deu
     E        B/D#      
É natal! Emanuel
                 B/A  B4/A  F#4  F#
Deus presente conosco es___tá

     E                   B/D#
É natal! Deus Filho foi dado a nós
     C#m7                G#m7  F#/A#  B
É natal! Deus Pai um presente nos    deu
     E        B/D#
É natal! Emanuel
                 B/A  B4/A  F#
Deus presente conosco es___tá

[Solo 2] G#m7  F#/A#  B  C#4  C# 
         F#/A#  G#m7  F#4  G4 

[Tab - Solo 2]

E|------------------------------------------|
B|---------------9-12-11h12p11-9-12~--------|
G|----------8-11----------------------------|
D|-11\8-8-9---------------------------------|
A|------------------------------------------|
E|------------------------------------------|

E|-----------------11-12-14-14-13-----------|
B|-11-12-14~-12-14----------------14-12-----|
G|------------------------------------------|
D|------------------------------------------|
A|------------------------------------------|
E|------------------------------------------|

E|-11-12-11----11-12-14--------14-15--------|
B|----------12----------14--15-------15-----|
G|------------------------------------------|
D|------------------------------------------|
A|------------------------------------------|
E|------------------------------------------|

E|----15-17~--------------------------------|
B|-15---------------------------------------|
G|------------------------------------------|
D|------------------------------------------|
A|------------------------------------------|
E|------------------------------------------|

[Refrão]

     F                   C/E
É natal! Deus Filho foi dado a nós
     Dm7                 Am7   G/B  C  Dm
É natal! Deus Pai um presente nos  deu
     F        C/E
É natal! Emanuel
                 Dm7     G4  G
Deus presente conosco está
        Am7     G/B 
Deus conosco está
        Dm7  F  G4  G
Deus conosco está
     C   Dm7  C/E  F
É natal!
     C   Dm7  C/E  F
É natal!
Outros vídeos desta música
66.426 exibições
  • Simplificar cifra
    • ½ Tom
    • A
    • Bb
    • B
    • C
    • Db
    • D
    • Eb
    • E
    • F
    • F#
    • G
    • Ab
  • Adicionar à lista

Afinação da cifra

Afinador online

    0 comentários

    Ver todos os comentários

    Entre para o Cifra Club PRO

    Tenha acesso a benefícios exclusivos no App e no Site

    • Chega de anúncios

    • Mais recursos no app do Afinador

    • Atendimento Prioritário

    • Aumente seu limite de lista

    • Ajude a produzir mais conteúdo

    Cifra Club Pro

    Aproveite o Cifra Club com benefícios exclusivos e sem anúncios
    Cifra Club Pro
    Aproveite o Cifra Club com benefícios exclusivos e sem anúncios
    OK