Cifra Club

Pelastusrengas

J. Karjalainen

Cifra: Principal (violão e guitarra)
Selo Cifra Club: esta cifra foi revisada para atender aos critérios oficiais da nossa Equipe de Qualidade.
tom: C
    C                          F                     G
E|--------0-----1-----3-----|--1-----5-3h5p3-1-----------3-5p3---------------|
B|--------1-----1-----1-----|----1--------------1---------------6-p5p3---1---|
G|-----------0-----0-----0--|------2---------------2/4p5---------------------|
D|--------------------------|------------------------------------------------|
A|--------3-----------------|------------------------------------------------|
E|--------------------------|------------------------------------------------|

    C                          C
E|--0--------------1h3p1p0--|--0------------------------3-----5-----3--\--1--|
B|--1-----------------------|--1---------------------------------------------|
G|-----------------2--------|---------------------------2--/--4-----\-----2--|
D|--------------------------|------------------------------------------------|
A|--3-----------------------|--3---------------------------------------------|
E|--------------------------|------------------------------------------------|


[Verse 1]
   C         F          G     C      C
On elomme tää niin kuin kylmä meri
      C                F        G        C     C
Jonka ylitse seilaamme laivalla rakkauden
     C     F     G        C      C
Auta minua, poloista, jos voit
C       F              G        C     C7
Oon tän laivan partaan yli pudonnut


[Chorus]
      F      G        C      C
Heitä minulle pelastusrengas
       F               G             C     C
Muuten hukun tän meren kylmiin aaltoihin
     F       G          C       C/B     Am7
Anna käsi ja vedä minut laivaan
         F          G             C      C
Ja pistä kuivumaan, lämpöön rakkauden


[Verse 2]
     C             F         G      C     C
Niin moni on meren aaltoihin vajonnut
    C           F       G        C    C
Avunhuudot ovat turhaan kiirineet
           C             F    G     C    C
Oon tehnyt väärin, mutta minua sääli
           F             G         C     C7
Jos kuulet huutoni, niin minut pelasta


[Chorus]
      F      G        C      C
Heitä minulle pelastusrengas
       F               G             C     C
Muuten hukun tän meren kylmiin aaltoihin
     F       G          C       C/B     Am7
Anna käsi ja vedä minut laivaan
         F          G             C      C
Ja pistä kuivumaan, lämpöön rakkauden


[Instrumental]
C F G C C
C F G C C
C F G C C
C F G C C7


[Chorus]
      F      G        C      C
Heitä minulle pelastusrengas
       F               G             C     C
Muuten hukun tän meren kylmiin aaltoihin
     F       G          C       C/B     Am7
Anna käsi ja vedä minut laivaan
         F          G             C      C7
Ja pistä kuivumaan, lämpöön rakkauden


[Chorus]
      F      G        C      C
Heitä minulle pelastusrengas
       F               G             C     C
Muuten hukun tän meren kylmiin aaltoihin
     F       G          C       C/B     Am7
Anna käsi ja vedä minut laivaan
         F          G             C      C
Ja pistä kuivumaan, lämpöön rakkauden


[Outro]

    C                          F                                               C
E|--5--3--------------0-----|--------1--3--1h3p1-------1--0--3--/--5--3--1--|--0--|
B|--------6--5--3--1-----1--|-----1---------------1---1------3--/--5--3--1--|--1--|
G|--------------------------|--2---------------------2----------------------|-----|
D|--------------------------|-----------------------------------------------|-----|
A|--------------------------|-----------------------------------------------|--3--|
E|--------------------------|-----------------------------------------------|-----|
Outros vídeos desta música
    0 exibições
      • ½ Tom
      • A
      • Bb
      • B
      • C
      • Db
      • D
      • Eb
      • E
      • F
      • F#
      • G
      • Ab
    • Adicionar à lista

    Afinação da cifra

    Afinador online

      0 comentários

      Ver todos os comentários

      Conseguiu tocar?

      0Tocaram0Ainda não

      Grave um vídeo tocando Pelastusrengas e nos envie!

      Toque também

      1. Imagem do artista Eppu NormaaliJee Jee Eppu Normaali
      2. Imagem do artista Rauli Badding SomerjokiIlta-Aurinko Rauli Badding Somerjoki
      3. Imagem do artista Juice LeskinenEkumeeninen Jenkka Juice Leskinen
      4. Imagem do artista EgotrippiUnihiekkaa Egotrippi

      Entre para o Cifra Club PRO

      Tenha acesso a benefícios exclusivos no App e no Site

      • Chega de anúncios

      • Badges exclusivas

      • Mais recursos no app do Afinador

      • Atendimento Prioritário

      • Aumente seu limite de lista

      • Ajude a produzir mais conteúdo

      Cifra Club Pro

      Aproveite o Cifra Club com benefícios exclusivos e sem anúncios
      Cifra Club Pro
      Aproveite o Cifra Club com benefícios exclusivos e sem anúncios
      Ops (: Contenido disponible sólo en portugués.
      OK