Cifra Club

Eu Queria Tanto Ter

J Neto

Cifra: Principal (violão e guitarra)
Selo Cifra Club: esta cifra foi revisada para atender aos critérios oficiais da nossa Equipe de Qualidade.
tom: B
Intro (acordes): F# G#m B F# G#m11 C#

Solo de guitarra:

E|6-----------6---7---9----11---11---9-----------9---9---|
B|7-----------7---9---10---12---12---11----------11--9---|
G|-------------------------------------------------------|
D|-------------------------------------------------------|
A|-------------------------------------------------------|
E|-------------------------------------------------------|

F#
Eu queria tanto ter
B
Asas e poder voar
G#m              B
Pra subir até o céu
           F#         G#m  C#
E com o Senhor conversar
F#
Eu queria tanto ter
B               F#/A#
O poder de flutuar
G#m              B
Pra chegar até Jesus
      F#      C#m  F#7
E receber sua luz

    B            C#/B
Mas eu não sei voar
          A#m        D#m
Nem muito menos flutuar
G#m          C#
Mas eu tenho fé
           C#m           F#7
E quem tem fé chega onde quer
  B             C#/B
Então eu me ajoelho
     A#m       D#m
E me ponho a orar
  G#4          G#  F#       E
Assim falo com meu Senhor Jesus
       C#
De onde estiver

          F#
Quando eu quero falar
      A#m         B
Com meu Senhor Jesus
      B/C#
Me ajoelho e oro
          F#
Quando eu quero falar
      A#m         G#m
Com meu Senhor Jesus
      B/C#
Me ajoelho e oro
(2x)

F#
Eu queria tanto ter
B
Asas e poder voar
G#m              C#7
Pra subir até o céu
           F#         G#m C#
E com o Senhor conversar
F#
Eu queria tanto ter
B               F#/A#
O poder de flutuar
G#m              B
Pra chegar até Jesus
      F#      C#m  F#7
E receber sua luz

    B            C#/B
Mas eu não sei voar
          A#m        D#m
Nem muito menos flutuar
G#m          C#
Mas eu tenho fé
           C#m           F#7
E quem tem fé chega onde quer
  B             C#/B
Então eu me ajoelho
     A#m       D#m
E me ponho a orar
  G#4          G#  F#       E
Assim falo com meu Senhor Jesus
       C#
De onde estiver

          F#
Quando eu quero falar
      A#m         B
Com meu Senhor Jesus
      B/C#
Me ajoelho e oro
          F#
Quando eu quero falar
      A#m         G#m
Com meu Senhor Jesus
      B/C#
Me ajoelho e oro

          F#
Quando eu quero falar
      A#m         B
Com meu Senhor Jesus
      B/C#
Me ajoelho e oro
          F#
Quando eu quero falar
      A#m         G#m
Com meu Senhor Jesus
      B/C#    F#
Me ajoelho e oro

Passagem (acordes): G G/B C D/C Bm Em F D

Solo de guitarra:

E|--------------------------------------------3---3-------2---0-----------5-------3-|
B|--------------------------------1-------------------------------3-----------------|
G|0-----------0-2-4-----------------------------------------------------------------|
D|----------------------------------------------------------------------------------|
A|----------------------------------------------------------------------------------|
E|----------------------------------------------------------------------------------|

E|--------0---------------------7---7---8--5-|
B|3---3-----1--------------------------------|
G|-------------------------------------------|
D|------------------------------9---9---10-7-|
A|-------------------------------------------|
E|-------------------------------------------|

          G
Quando eu quero falar
      Bm          C
Com meu Senhor Jesus
      C/D
Me ajoelho e oro
          G
Quando eu quero falar
      Bm          Am
Com meu Senhor Jesus
      C/D
Me ajoelho e oro

          G
Quando eu quero falar
      Bm          C
Com meu Senhor Jesus
      C/D
Me ajoelho e oro
          G
Quando eu quero falar
      Bm          Am
Com meu Senhor Jesus
      C/D     G  Bm C G/B Am G
Me ajoelho e oro

Final:

E|3---------3-5-3-7---------------12-------10-------8--------------7-|
B|-------------------------------------------------------------------|
G|--------------------------------12-------11-------9--------------7-|
D|5---------5-7-5-9--------------------------------------------------|
A|-------------------------------------------------------------------|
E|-------------------------------------------------------------------|
Outros vídeos desta música
    12.357 exibições
      • ½ Tom
      • A
      • Bb
      • B
      • C
      • Db
      • D
      • Eb
      • E
      • F
      • F#
      • G
      • Ab
    • Adicionar à lista

    Afinação da cifra

    Afinador online

      0 comentários

      Ver todos os comentários

      Entre para o Cifra Club PRO

      Tenha acesso a benefícios exclusivos no App e no Site

      • Chega de anúncios

      • Badges exclusivas

      • Mais recursos no app do Afinador

      • Atendimento Prioritário

      • Aumente seu limite de lista

      • Ajude a produzir mais conteúdo

      Cifra Club Pro

      Aproveite o Cifra Club com benefícios exclusivos e sem anúncios
      Cifra Club Pro
      Aproveite o Cifra Club com benefícios exclusivos e sem anúncios
      OK