Cifra Club

Falling Like The Stars

James Arthur

Cifra: Principal (violão e guitarra)
tom: Db (forma dos acordes no tom de C) Capotraste na 1ª casa
[Dedilhado Padrão]

   C
E|------------------------------------------|
B|-----1--------1--------1--------1---------|
G|---0---0----0---0----0---0----0---0-------|
D|------------------------------------------|
A|-3--------3--------3--------3-------------|
E|------------------------------------------|

   Am7
E|------------------------------------------|
B|-----1--------1--------1--------1---------|
G|---0---0----0---0----0---0----0---0-------|
D|------------------------------------------|
A|-0--------0--------0--------0-------------|
E|------------------------------------------|

   F9
E|------------------------------------------|
B|-----1--------1--------1--------1---------|
G|---0---0----0---0----0---0----0---0-------|
D|------------------------------------------|
A|------------------------------------------|
E|-1--------1--------1--------1-------------|

   C
E|------------------------------------------|
B|-----1--------1--------1--------1---------|
G|---0---0----0---0----0---0----0---0-------|
D|------------------------------------------|
A|-3--------3--------3--------3-------------|
E|------------------------------------------|

[Primeira Parte]

C
  I swear to God, when I come home
Am7
    I'm gonna hold you so close
F9                                                   C
   I swear to God, when I come home, I'll never let go

Like a river, I flow
Am7
    To the ocean I known
F9                                    C
   And you pull me close, guiding me home

[Refrão]

    C                        
And I need you to know that 
 Am7                          F9
We´re falling so fast, we're falling like the stars
            C
Falling in love
                                 Am7
And I'm not scared to say those words
                          F9
With you I'm safe, we're falling like the stars
                  C
We're falling in love

[Segunda Parte]

C
  I swear to God, I can see
Am7
    Four kids and no sleep
F9                                       C
   We'll have one on each knee, you and me

And when they've grown up
Am7
    You're still the girl in the club 
F9                                            C
   When I held your hair up 'cos you had too much

[Refrão]

    C                        
And I need you to know that 
 Am7                          F9
We´re falling so fast, we're falling like the stars
            C
Falling in love
                                 Am7
And I'm not scared to say those words
                          F9
With you I'm safe, we're falling like the stars
                  C
We're falling in love

[Terceira Parte]

C
  I swear to God, every day
Am7
    He won't take you away
F9                                      C
   'Cause without you, babe, I lose my way                                              
                                              Am7
Oh, I'm in love, oh, I'm in love, oh, I'm in love
            F9                                C
Oh, I'm in love, oh, I'm in love, oh, I'm in love

(Falling like the stars)

[Refrão]

    C                        
And I need you to know that 
 Am7                          F9
We´re falling so fast, we're falling like the stars
            C
Falling in love
                                 Am7
And I'm not scared to say those words
                          F9
With you I'm safe, we're falling like the stars
                  C
We're falling in love
00:00 / 00:00
Outros vídeos desta música
Repetir
Outros vídeos desta música
Composição de Anders Albin Höjer / James Arthur / Jamie Grey
Colaboração e revisão:
  • Thiago Almeida
39.253 exibições
    • ½ Tom
    • A
    • Bb
    • B
    • C
    • Db
    • D
    • Eb
    • E
    • F
    • F#
    • G
    • Ab
  • Adicionar à lista

    0 comentários

    Ver todos os comentários

    Conseguiu tocar?

    21 Tocaram 1 Ainda não

    Grave um vídeo tocando Falling Like The Stars e nos envie!

    Entre para oCifra Club PRO

    Tenha acesso a benefícios exclusivos no App e no Site

    • Chega de anúncios

    • Prioridade de compra em lançamentos

    • Mais recursos no app do Afinador

    • Atendimento Prioritário

    • Descontos nos produtos Cifra Club

    • Ajude a produzir mais conteúdo

    00:00 / 00:00

    Cifra Club Pro

    Aproveite o Cifra Club com benefícios exclusivos e sem anúncios
    Cifra Club Pro
    Aproveite o Cifra Club com benefícios exclusivos e sem anúncios
    OK