Cifra Club

Give It Up Or Turnit A Loose

James Brown

Cifra: Principal (violão e guitarra)
Selo Cifra Club: esta cifra foi revisada para atender aos critérios oficiais da nossa Equipe de Qualidade.
tom: Bm
E|----------| |--------------------------------|
B|----------| |o---------------------------x-x-|
G|----------| |----------------------------x-x-|
D|----------| |--------------------------------|
A|----------| |o-3-3-3---3-3-x-3---5---5-------|
E|----------| |--------------------------------|


   PM--------------------------|
   S S S S S S S S S S S S S S S S
E|------------------------------------| |
B|-----------------------------------o| |
G|------------------------------------| |
D|---------------------------3--------| |
A|-3-3-3---3-3-x-3---5---5-----5-----o| |
E|------------------------------------| |


   [1st Verse]
     N.C.
     PM--------------------|         PM--------------------------|
     S S S S S S S S S S S S S S E   S S S S S S S S S S S S S S S S 11x
e||--------------------------------|----------------------------------||
B||o---------------------------x-x-|---------------------------------o||
G||----------------------------x-x-|----------------------------------||
D||--------------------------------|---------------------------3------||
A||o-3-3-3---3-3-x-3---5---5-------|-3-3-3---3-3-x-3---5---5-----5---o||
E||--------------------------------|----------------------------------||


   PM--------------------|
   S S S S S S S S S S S S S S E
E|---------------------------------| |
B|---------------------------x-x---| |
G|---------------------------x-x---| |
D|---------------------------------| |
A|-3-3-3---3-3-x-3---5---5---------| |
E|---------------------------------| |


   [Bridge]
      G9
      Q   S  S  S  S S  S S S  E E
e||--/10-----------------------10---|
B||o-/10--10-10-10-10---10---0-10---|
G||--/10--10-10-10-10---10-----10---|
D||---/9----------------------------|
A||o--------------------------------|
E||---------------------------------|

  
   Q   S  S S  S S  S E Q     Q   S  S  S  S S  S E  Q
E|-10-----------------------|-10-------------------------|
B|-10--10-10---10---10------|-10--10-10-10-10---10---10--|
G|-10--10-10---10---10------|-10--10-10-10-10---10---10--|
D|--------------------------|----------------------------|
A|--------------------------|----------------------------|
E|--------------------------|----------------------------|


                                   F#9 G9
    S  S  S  S S  S E  S S  S  S E E    Q   S  S  S  S  +S   E  S  Q
E|-----------------------------------|--------------------------------|
B|-10-10-10-10---10---10---10-10---9s| =10--10-10-10-10-(10)-10-10-10--|
G|-10-10-10-10---10---10---10-10---9s| =10--10-10-10-10-(10)-10-10-10--|
D|---------------------------------8s| ==9-----------------------------|
A|-----------------------------------|--------------------------------|
E|-----------------------------------|--------------------------------|


    S  S  S  S  +S   E.  S  S  S  S  +S   S E
E|--------------------------------------------|
B|-10-10-10-10-(10)-10--10-10-10-10-(10)-10-x-|
G|-10-10-10-10-(10)-10--10-10-10-10-(10)-10-x-|
D|--------------------------------------------|
A|--------------------------------------------|
E|--------------------------------------------|


                                                        F#9
   E  Q.    S  S  S  S S S E    E E  E S  S S  S S S  E E
E|---10----------------------|--------------------------9/--| |
B|-x-10----10-10-10-10---x-x-|-10---10---10---10---0-10-9/-o| |
G|-x-10----10-10-10-10---x-x-|-10---10---10---10-----10-9/--| |
D|---------------------------|--------------------------8/--| |
A|---------------------------|-----------------------------o| |
E|---------------------------|------------------------------| |


    [2nd Verse]
       N.C.
       PM--------------------|
       S S S S S S S S S S S S S S E
e|-||---------------------------------|
B|-||o---------------------------x-x--|
G|-||----------------------------x-x--|
D|-||---------------------------------|
A|-||o-3-3-3---3-3-x-3---5---5--------|
E|-||---------------------------------|


   PM--------------------------|       PM--------------------|
   S S S S S S S S S S S S S S S S  8x S S S S S S S S S S S S S S E
E|----------------------------------| |-------------------------------||
B|---------------------------------o| |---------------------------x-x-||
G|----------------------------------| |---------------------------x-x-||
D|---------------------------3------| |-------------------------------||
A|-3-3-3---3-3-x-3---5---5-----5---o| |-3-3-3---3-3-x-3---5---5-------||
E|----------------------------------| |-------------------------------||


  [Bridge]
    G9
     Q   S  S  S  S S  S S S  E E
E|-/10-----------------------10---|
B|-/10--10-10-10-10---10---0-10---|
G|-/10--10-10-10-10---10-----10---|
D|--/9----------------------------|
A|--------------------------------|
E|--------------------------------|


    Q   S  S S  S S  S E Q     Q   S  S  S  S S  S E  Q
E|-10-----------------------|-10--------------------------|
B|-10--10-10---10---10------|-10--10-10-10-10---10---10---|
G|-10--10-10---10---10------|-10--10-10-10-10---10---10---|
D|--------------------------|-----------------------------|
A|--------------------------|-----------------------------|
E|--------------------------|-----------------------------|


                                   F#9 G9
    S  S  S  S S  S E  S S  S  S E E    Q   S  S  S  S  +S   E  S  Q
E|-----------------------------------|--------------------------------|
B|-10-10-10-10---10---10---10-10---9s| =10--10-10-10-10-(10)-10-10-10--|
G|-10-10-10-10---10---10---10-10---9s| =10--10-10-10-10-(10)-10-10-10--|
D|---------------------------------8s| ==9-----------------------------|
A|-----------------------------------|--------------------------------|
E|-----------------------------------|--------------------------------|


    S  S  S  S  +S   E.  S  S  S  S  +S   S E
E|--------------------------------------------|
B|-10-10-10-10-(10)-10--10-10-10-10-(10)-10-x-|
G|-10-10-10-10-(10)-10--10-10-10-10-(10)-10-x-|
D|--------------------------------------------|
A|--------------------------------------------|
E|--------------------------------------------|


                                                        F#9
  E  Q.    S  S  S  S S S E    E E  E S  S S  S S S  E E
E|---10----------------------|--------------------------9s|
B|-x-10----10-10-10-10---x-x-|-10---10---10---10---0-10-9s|
G|-x-10----10-10-10-10---x-x-|-10---10---10---10-----10-9s|
D|---------------------------|--------------------------8s|
A|---------------------------|----------------------------|
E|---------------------------|----------------------------|


   G9
    Q   S  S  S  S S  S S S  E E
E|-10-----------------------10----|
B|-10--10-10-10-10---10---0-10----|
G|-10--10-10-10-10---10-----10----|
D|--9-----------------------------|
A|--------------------------------|
E|--------------------------------|


                              [Outro]
                               N.C.
                               PM--------------------|
    Q   S  S S  S S  S E Q     S S S S S S S S S S S S S S E
E|-10-----------------------| |-------------------------------|
B|-10--10-10---10---10------| |---------------------------x-x-|
G|-10--10-10---10---10------| |---------------------------x-x-|
D|--------------------------| |-------------------------------|
A|--------------------------| |-3-3-3---3-3-x-3---5---5-------|
E|--------------------------| |-------------------------------|


   PM--------------------------|
   S S S S S S S S S S S S S S S S
E|---------------------------------*|
B|---------------------------------*|
G|---------------------------------*|
D|---------------------------3-----*|
A|-3-3-3---3-3-x-3---5---5-----5---*|
E|---------------------------------*|

[Lyrics]
Baby give it up or turn it a loose
Uh ha baby gives it up or turn it a loose
Starting over again
Baby, give it up or turn it a loose
Oh ha baby, give it up or turn it loose
Oooooh all right

Baby, give it up, oh turn it a loose oh
Oh o o all night long, uh
All right, hey, hey, hey, hey

All night long, isn't no use oh o
Oh oo baby give it up ha
Lord have mercy, hey, hey, hey, hey
All night long, isn't no use oh o
Oh oo baby give it up ha
Lord have mercy, hey, hey, hey, hey
Uh ha oh oh e wow
Baby need you so
Uh turn it a loose
Hey, hey, hey, hey
Oh, oh, oh, hold you tight
Because I need you so
With all my might
I've got to squeeze you
Hold you tight because I love you so
Oh oh oh baby oh
Outros vídeos desta música
    18 exibições
      • ½ Tom
      • Am
      • Bbm
      • Bm
      • Cm
      • C#m
      • Dm
      • Ebm
      • Em
      • Fm
      • F#m
      • Gm
      • G#m
    • Adicionar à lista

    Afinação da cifra

    Afinador online

      0 comentários

      Ver todos os comentários

      Entre para o Cifra Club PRO

      Tenha acesso a benefícios exclusivos no App e no Site

      • Chega de anúncios

      • Badges exclusivas

      • Mais recursos no app do Afinador

      • Atendimento Prioritário

      • Aumente seu limite de lista

      • Ajude a produzir mais conteúdo

      Cifra Club Pro

      Aproveite o Cifra Club com benefícios exclusivos e sem anúncios
      Cifra Club Pro
      Aproveite o Cifra Club com benefícios exclusivos e sem anúncios
      Ops (: Contenido disponible sólo en portugués.
      OK