Cifra Club

People Get Up And Drive Your Funky Soul

James Brown

Cifra: Principal (violão e guitarra)
Selo Cifra Club: esta cifra foi revisada para atender aos critérios oficiais da nossa Equipe de Qualidade.
tom: Dm
[Intro]
   Dm              Dm/C              Dm/Bb           Am
E|-10--------------10--------------|-10--------------8-------------|
B|-10--------------10--------------|-10--------------10------------|
G|-10--------------10--------------|-10--------------9-------------|
D|---------------------------------|-------------------------------| play 2x
A|---------------------------------|-------------------------------|
E|---------------------------------|-------------------------------|





[Verse 1]

   only the first time is different:
E|--------------------------------|---------------------------------|
B|--------------------------------|---------------------------------|
G|--------------------------------|---------------------------5-7-5-|
D|-----------------7----5-7-----5-|-6---5---7-----5-7---5-7---------|
A|--------------------------------|---------------------------------|
E|--------------------------------|---------------------------------|
 "Raise up, get yourself together, and grab that funky soul"


   repeated vamp played similarly with lyrics until fadeout:
E|--------------------------------|---------------------------------|
B|-6------------------------------|---------------------------------|
G|-----7~-----x-x-x---x---x---x---|-----x-x-x---x---x---------5-7-5-|
D|--------------------------------|---------------------5-7---------|
A|--------------------------------|---------------------------------|
E|--------------------------------|---------------------------------|
Outros vídeos desta música
    867 exibições
      • ½ Tom
      • Am
      • Bbm
      • Bm
      • Cm
      • C#m
      • Dm
      • Ebm
      • Em
      • Fm
      • F#m
      • Gm
      • G#m
    • Adicionar à lista

    Afinação da cifra

    Afinador online

      0 comentários

      Ver todos os comentários

      Entre para o Cifra Club PRO

      Tenha acesso a benefícios exclusivos no App e no Site

      • Chega de anúncios

      • Badges exclusivas

      • Mais recursos no app do Afinador

      • Atendimento Prioritário

      • Aumente seu limite de lista

      • Ajude a produzir mais conteúdo

      Cifra Club Pro

      Aproveite o Cifra Club com benefícios exclusivos e sem anúncios
      Cifra Club Pro
      Aproveite o Cifra Club com benefícios exclusivos e sem anúncios
      Ops (: Contenido disponible sólo en portugués.
      OK