Cifra Club

No Ones Leaving

Jane's Addiction

Cifra: Principal (violão e guitarra)
Selo Cifra Club: esta cifra foi revisada para atender aos critérios oficiais da nossa Equipe de Qualidade.
tom: Bm
E|---------------------------------|------------------------------|
B|--9----x-9--x-x-x-9--x-9--x-x-x--|-9---x-9--x-x-x-9-------------|
G|--11---x-9--x-x-x-9--x-11-x-x-x--|-11--x-9--x-x-x-9-------------|
D|-------9----9-9-9----9----9-9-9--|-----9----9-9-9-----11-9p8----|
A|---------------------------------|---------------------------9--|
E|---------------------------------|------------------------------|


E|--------------------------------|------------------------------------|
B|--9----x-9--x-x-x-9--x-9--x-x-x-|--14-14-14---14-14--x-14---14---14--|
G|--11---x-9--x-x-x-9--x-11-x-x-x-|--13-13-13---13-13--x-13---13---13--|
D|-------9----9-9-9----9----9-9-9-|--11-11-11---11-11--x-11---11---11--|
A|--------------------------------|------------------------------------|
E|--------------------------------|------------------------------------|


Verse Riff 2:
e-|--------------------------------|--------------------------------|-
B-|--11--------11-11-12-14--12-11--|--11--------11-11-12-14--12-11--|-
G-|--11--------11-11-11-11--11-11--|--11--------11-11-11-11--11-11--|-
D-|--11--------11-11-11-11--11-11--|--11--------11-11-11-11--11-11--|-
A-|--------------------------------|--------------------------------|-
E-|--------------------------------|--------------------------------|-


e-|--------------------------------|--12--12--x-12--x-12--x-12--------|-
B-|------------11-11-12-14--12-11--|--11--11--x-11--x-11--x-11--------|-
G-|--11--------11-11-11-11--11-11--|--11--11--x-11--x-11--x-11--------|-
D-|--11--------11-11-11-11--11-11--|----------------------------------|-
A-|---9----------------------------|----------------------------------|-
E-|--------------------------------|----------------------------------|-


Replay Verse Riff 1, but change last bar to this chord:

E|----------------------------|
B|-9-9-9---9----9-9--9--9-----|
G|-6-6-6---6----6-6--6--6-----|
D|----------------------------|
A|----------------------------|
E|----------------------------|


Verse Ending:
E|----------------------------|----------------------------|
B|--2--------x-x-x-4----6--x--|--2--------x-x-x-4----6--x--|
G|--3--------x-x-x-4----6--x--|--3--------x-x-x-4----6--x--|
D|--4--------x-x-x------------|--4--------x-x-x---------x--|
A|--4-------------------------|--4-------------------------|
E|----------------------------|----------------------------|


E|---------------------------|---------------------------|
B|--2--------x-x-x-4----6p4--|---------------------------|
G|--3--------x-x-x-4----6p4--|---------------------------|
D|--4--------x-x-x-----------|-----4----4-----2h4---2h4--|
A|--4------------------------|-----4----4-----2h4---2h4--|
E|---------------------------|-2-2-2--2-2--2-------------|
                           pm  * *    *    *



Transition Riff (0:40) - play 2x
   A               G        A               G        C            D     
E|-----------------------|------------------------|-------10-----------------|
B|-5---5---5---5---3-----|--5---5---5---5---3-----|---8----8---8---10---10---|
G|-6---6---6---6---4-----|--6---6---6---6---4-----|---9----9---9---11---11---|
D|-7---7---7---7---5-----|--7---7---7---7---5-----|--10---10--10---12---12---|
A|-----------------------|------------------------|--------------------------|
E|-----------------------|------------------------|--------------------------|



    F#add4
E|----------------|-------------------|---------------------|
B|--0-------------|-------------------|---------------------|
G|--3-------------|-------------------|---------------------|
D|--4-------------|--vo| lume knob off--|---turn up volume----|
A|----------------|-------------------|---------------------|
E|----------------|-------------------|---------------------|





0:59 - Play Verse Riff 1 through Verse Ending again

Play Transition Riff




Note: During Solo, Rhythm Guitar plays similar to Verse Riff 1 for 8 bars, 
then plays 'Transition Riff to end of solo

Solo (1:44) - 
E|-------------------|---------------------------------------------------|
B|-17----------------|-16b17r16-14-16p14-------------16b17r16-14-16--14--|
G|-16b18-------16-16-|-16b17r16-14-16p14-16-16-16-16-16b17r16-14-16--14--|
D|-------------------|---------------------------------------------------|
A|-------------------|---------------------------------------------------|
E|-------------------|---------------------------------------------------|

E|-----------------------------------|--------------------------------|
B|--------------------------14---x-x-|--------14-16p14---14-14---14---|
G|-----14-----16-----14-----14---x-x-|--------14-16p14---14-14---14---|
D|-14----14-14--16-16--14-14---------|-14h16----------16-------16--16-|
A|-----------------------------------|--------------------------------|
E|-----------------------------------|--------------------------------|

E|-19b21~------19-21\-|-17p14p12-17p14p12----------------------------------|
B|--------------------|------------------19p17p14-19p17p14-----------------|
G|--------------------|-----------------------------------18p16p14----14~\-|
D|--------------------|-------------------------------------------16-------|
A|--------------------|----------------------------------------------------|
E|--------------------|----------------------------------------------------|

E|---------------------------|---------------------------------------------|
B|---------------------------|---------------------------------------------|
G|---------------------------|---------------------------------------------|
D|-7--7--7--9b11r9p7--9~-----|-7P| H--7PH--7PH-7PH--9b11r9p7----7PH-7PH--9PH-|
A|------------------9----9-9-|----------------------------9P| H--------------|
E|---------------------------|---------------------------------------------|

E|-21p19p17-19p17--17--------------------------------------------------|
B|---------------21--21p19-21p19p17-19p17p15-17------------------------|
G|---------------------------------------------19p18-19p18p16-18p16p14-|
D|---------------------------------------------------------------------|
A|---------------------------------------------------------------------|
E|---------------------------------------------------------------------|

E|------------------------------------------------------------------------|
B|------------------------------------------------------------------------|
G|-16p14--14--------------------------------------------------------------|
D|------18--18p16-18p16p14-16p14--14--------------------------------------|
A|------------------------------17--17p16-17p16p14-16p14p12-12p11h12------|
E|------------------------------------------------------------------------|

E|------------------------------|
B|-17v---17v---17v----19v--19v--|
G|-17v---17v---17v----19v--19v--|
D|-17v---17v---17v----19v--19v--|
A|------------------------------|
E|------------------------------|

   play this 2x with some tremelo picking:
e|----------------------------------------------------------------|
B|-17h20p17-16h20p16-17h20p17-16h20p16-17h20p17-16h20p16-15h19p15-|
G|----------------------------------------------------------------|
D|----------------------------------------------------------------|
A|----------------------------------------------------------------|
E|----------------------------------------------------------------|

E|-17------17------17--------17----17---------|------------------|
B|-20b22---20b22---20b22-----20----20b22--20--|-0----------------|
G|--------------------------------------------|-15---------------|
D|--------------------------------------------|-16---------------|
A|--------------------------------------------|------------------|
E|--------------------------------------------|------------------|



Hold F#add4 chord, then play:


Outro (2:18)

E|----------------------|-----------------------------|
B|----------------------|-----------------------------|
G|-----------| Bass-Plays-|------------2/6--gradual-----|
D|----------------------|------------2/6--s| lide-------|
A|--2--4----------------|--2--4-----------------------|
E|--0--2----------------|--0--2-----------------------|


Harmonic Lick
play 12x
E|----------------------------------------------|
B|----------------5N| H---------------------------|
G|----------x--2-----5N| H-5NH-5NH----------------|
D|----------x--2----------------5N| H-5NH-4NH-4NH-|
A|--2--4-------0--------------------------------|
E|--0--2----------------------------------------|


play 3x
E|------------------------------|
B|------------------------------|
G|------------------------------|
D|------------------------------|
A|--2--4------------------------|
E|--0--2------------------------|
Outros vídeos desta música
    4 exibições
      • ½ Tom
      • Am
      • Bbm
      • Bm
      • Cm
      • C#m
      • Dm
      • Ebm
      • Em
      • Fm
      • F#m
      • Gm
      • G#m
    • Adicionar à lista

    Afinação da cifra

    Afinador online

      0 comentários

      Ver todos os comentários

      Entre para o Cifra Club PRO

      Tenha acesso a benefícios exclusivos no App e no Site

      • Chega de anúncios

      • Badges exclusivas

      • Mais recursos no app do Afinador

      • Atendimento Prioritário

      • Aumente seu limite de lista

      • Ajude a produzir mais conteúdo

      Cifra Club Pro

      Aproveite o Cifra Club com benefícios exclusivos e sem anúncios
      Cifra Club Pro
      Aproveite o Cifra Club com benefícios exclusivos e sem anúncios
      Ops (: Contenido disponible sólo en portugués.
      OK