Cifra Club

Aprenda

Details In The Fabric

Jason Mraz

Cifra: Principal (violão e guitarra)
tom: F# (forma dos acordes no tom de C) Capotraste na 6ª casa
[Intro]
                            Am7
E|---------0------------------------0---------------|
B|-----1-----1-----1-1----------1-----1-----1-1-----|
G|-----0---------0-------0------0---------0-------0-|
D|---2-x-------2---x----------2-x-------2---x-------|
A|-0---x-0---------x---0----0---x-0---------x---0---|
E|--------------------------------------------------|

                            G/B
E|---------0------------------------0---------------|
B|-----1-----1-----1-1----------1-----1-----1-1-----|
G|-----0---------0-------0------0---------0-------0-|
D|---0-x-------0---x----------0-x-------0---x-------|
A|-2---x-2---------x---2----2---x-2---------x---2---|
E|--------------------------------------------------|

Am7
Calm down
      G/B
Deep breaths
         Am7             G/B
And get yourself dressed instead
           Am7
Of running around
                                 G/B
And pulling all your threads and

Breaking yourself up
          Am7
If it's a broken part, replace it

But, if it's a broken arm then brace it

                            Am7
E|---------0------------------------0---------------|
B|-----1-----1-----1-1----------1-----1-----1-1-----|
G|-----0---------0-------0------0---------0-------0-|
D|---2-x-------2---x----------2-x-------2---x-------|
A|-0---x-0---------x---0----0---x-0---------x---0---|
E|--------------------------------------------------|

                            G/B
E|---------0------------------------0---------------|
B|-----1-----1-----1-1----------1-----1-----1-1-----|
G|-----0---------0-------0------0---------0-------0-|
D|---0-x-------0---x----------0-x-------0---x-------|
A|-2---x-2---------x---2----2---x-2---------x---2---|
E|--------------------------------------------------|

            G/B
If it's a broken heart then face it

E|-----------------|
B|-----------------|
G|-----------------|
D|-----------------|
A|-2~--------------|
E|-----------------|

               C
And hold your own
          G/B
Know your name
            Am7
And go your own way
               C
And hold your own
          G/B
Know your name
            Am7
And go your own way
G         F             G
And everything will be fine

                  C                        G/B                                   Am7
E|---------0---------------|---------0---------------|---------3------------------------3---------------|
B|-----1-----1-----1-1-----|-----1-----1-----1-1-----|-----1-----1-----1-1----------1-----1-----1-1-----|
G|-----0---------0-------0-|-----0---------0-------0-|-----0---------0-------0------0---------0-------0-|
D|---2-x-------2---x-------|---0-x-------0---x-------|---0-x-------0---x----------0-x-------0---x-------|
A|-3---x-3---------x---3---|-2---x-2---------x---2---|-0---x-0---------x---0----0---x-0---------x---0---|
E|-------------------------|-------------------------|--------------------------------------------------|

                  C                        G/B                                   Am7
E|---------3---------------|---------0---------------|---------3------------------------3---------------|
B|-----1-----1-----1-1-----|-----1-----1-----1-1-----|-----1-----1-----1-1----------1-----1-----1-1-----|
G|-----0---------0-------0-|-----0---------0-------0-|-----0---------0-------0------0---------0-------0-|
D|---2-x-------2---x-------|---0-x-------0---x-------|---0-x-------0---x----------0-x-------0---x-------|
A|-3---x-3---------x---3---|-2---x-2---------x---2---|-0---x-0---------x---0----0---x-0---------x---0---|
E|-------------------------|-------------------------|--------------------------------------------------|

                           G                              F
E|---------0---------------|---------1-----------------------1---------------|
B|-----0-----0-----0-0-----|-----1-----1-----1-1---------1-----1-----1-1-----|
G|-----0---------0-------0-|-----2---------2-------2-----2---------2-------2-|
D|-----x-----------x-------|-----x-------3---x---------3-x-------3---x-------|
A|---2-x-------2---x-------|---3-x-----------x-----------x-----------x-------|
E|-3-----3-------------3---|-1-----1-------------1---1-----1-------------3---|

            G
E|-----------------|
B|-----------------|
G|-------0-12------|
D|-----0-----------|
A|---2-------------|
E|-3---------------|

     Am7
Hang on
        G/B
Help is on the way
    Am7
Stay strong
         G/B
I'm doing everything

                          Am7
E|---------0------------------------0---------------|
B|-----1-----1-----1-1----------1-----1-----1-1-----|
G|-----0---------0-------0------0---------0-------0-|
D|---2-x-------2---x----------2-x-------2---x-------|
A|-0---x-0---------x---0----0---x-0---------x---0---|
E|--------------------------------------------------|

                            G/B
E|---------0------------------------0---------------|
B|-----1-----1-----1-1----------1-----1-----1-1-----|
G|-----0---------0-------0------0---------0-------0-|
D|---0-x-------0---x----------0-x-------0---x-------|
A|-2---x-2---------x---2----2---x-2---------x---2---|
E|--------------------------------------------------|

                          Am7
E|---------0------------------------0---------------|
B|-----1-----1-----1-1----------1-----1-----1-1-----|
G|-----0---------0-------0------0---------0-------0-|
D|---2-x-------2---x----------2-x-------2---x-------|
A|-0---x-0---------x---0----0---x-0---------x---0---|
E|--------------------------------------------------|

             G/B
E|-----------------|
B|-----------------|
G|-----------------|
D|-----------------|
A|-2~--------------|
E|-----------------|

          C
Hold your own
           G/B
Know your name
            Am7
And go your own way
          C
Hold your own
           G/B
Know your name
            Am7
And go your own way
G          F            G            F
And everything, everything will be fine
       G
Everything

                  C                        G/B                                   Am7
E|---------0---------------|---------0---------------|---------3------------------------3---------------|
B|-----1-----1-----1-1-----|-----1-----1-----1-1-----|-----1-----1-----1-1----------1-----1-----1-1-----|
G|-----0---------0-------0-|-----0---------0-------0-|-----0---------0-------0------0---------0-------0-|
D|---2-x-------2---x-------|---0-x-------0---x-------|---0-x-------0---x----------0-x-------0---x-------|
A|-3---x-3---------x---3---|-2---x-2---------x---2---|-0---x-0---------x---0----0---x-0---------x---0---|
E|-------------------------|-------------------------|--------------------------------------------------|

                  C                        G/B                                   Am7
E|---------3---------------|---------0---------------|---------3------------------------3---------------|
B|-----1-----1-----1-1-----|-----1-----1-----1-1-----|-----1-----1-----1-1----------1-----1-----1-1-----|
G|-----0---------0-------0-|-----0---------0-------0-|-----0---------0-------0------0---------0-------0-|
D|---2-x-------2---x-------|---0-x-------0---x-------|---0-x-------0---x----------0-x-------0---x-------|
A|-3---x-3---------x---3---|-2---x-2---------x---2---|-0---x-0---------x---0----0---x-0---------x---0---|
E|-------------------------|-------------------------|--------------------------------------------------|

                     G                     F
E|---------0---------------|---------1---------------|
B|-----0-----0-----0-0-----|-----1-----1-----1-1-----|
G|-----0---------0-------0-|-----2---------2-------2-|
D|-----x-----------x-------|-----x-------3---x-------|
A|---2-x-------2---x-------|---3-x-----------x-------|
E|-3-----3-------------3---|-1-----1-------------1---|

                     G                     F
E|---------0---------------|---------1---------------|
B|-----0-----0-----0-0-----|-----1-----1-----1-1-----|
G|-----0---------0-------0-|-----2---------2-------2-|
D|-----x-----------x-------|-----x-------3---x-------|
A|---2-x-------2---x-------|---3-x-----------x-------|
E|-3-----3-------------3---|-1-----1-------------1---|

             G
E|-----------------|
B|-----------------|
G|-----------------|
D|-----------------|
A|-----------------|
E|-3---------------|

         C
Are the details in the fabric
         G/B
Are the things that make you panic
            Am7
Are your thoughts results of static cling?

          C
Are the things that make you blow
           G/B
Hell, no reason, go on and scream
            Am7
If you're shocked it's just the fault
             Am7/G
Of faulty manufacturing

                  C                        G/B                                   Am7
E|---------0---------------|---------0---------------|---------3------------------------3---------------|
B|-----1-----1-----1-1-----|-----1-----1-----1-1-----|-----1-----1-----1-1----------1-----1-----1-1-----|
G|-----0---------0-------0-|-----0---------0-------0-|-----0---------0-------0------0---------0-------0-|
D|---2-x-------2---x-------|---0-x-------0---x-------|---0-x-------0---x----------0-x-------0---x-------|
A|-3---x-3---------x---3---|-2---x-2---------x---2---|-0---x-0---------x---0----0---x-0---------x---0---|
E|-------------------------|-------------------------|--------------------------------------------------|

                  C                        G/B                                   Am7
E|---------3---------------|---------0---------------|---------3------------------------3---------------|
B|-----1-----1-----1-1-----|-----1-----1-----1-1-----|-----1-----1-----1-1----------1-----1-----1-1-----|
G|-----0---------0-------0-|-----0---------0-------0-|-----0---------0-------0------0---------0-------0-|
D|---2-x-------2---x-------|---0-x-------0---x-------|---0-x-------0---x----------0-x-------0---x-------|
A|-3---x-3---------x---3---|-2---x-2---------x---2---|-0---x-0---------x---0----0---x-0---------x---0---|
E|-------------------------|-------------------------|--------------------------------------------------|

G      F            G    F
Yeah everything will be fine
    G                F
Everything in no time at all
F
Everything

                     G                     F
E|---------0---------------|---------1---------------|
B|-----0-----0-----0-0-----|-----1-----1-----1-1-----|
G|-----0---------0-------0-|-----2---------2-------2-|
D|-----x-----------x-------|-----x-------3---x-------|
A|---2-x-------2---x-------|---3-x-----------x-------|
E|-3-----3-------------3---|-1-----1-------------1---|

                     G                     F
E|---------0---------------|---------1---------------|
B|-----0-----0-----0-0-----|-----1-----1-----1-1-----|
G|-----0---------0-------0-|-----2---------2-------2-|
D|-----x-----------x-------|-----x-------3---x-------|
A|---2-x-------2---x-------|---3-x-----------x-------|
E|-3-----3-------------3---|-1-----1-------------1---|

             G
E|-----------------|
B|-----------------|
G|-----------------|
D|-----------------|
A|-----------------|
E|-3---------------|

           C
Hold your own
          G/B
Know your name
            Am7
And go your own way
               C
And hold your own
          G/B
Know your name
            Am7
And go your own way
G         F             G
And everything will be fine

               C
And hold your own
          G/B
Know your name
            Am7
And go your own way
               C
And hold your own
          G/B
Know your name
            Am7
And go your own way
G         F             G
And everything will be fine

G      F            G    F
Yeah everything will be fine
    G                F
Everything in no time at all
F
Everything
Composição de Dan Wilson / Jason Mraz
Colaboração e revisão:
  • Getúlio Vasconcelos
  • Wallace Marcos
  • Costi
36.413 exibições
    • ½ Tom
    • A
    • Bb
    • B
    • C
    • Db
    • D
    • Eb
    • E
    • F
    • F#
    • G
    • Ab
  • Adicionar à lista

    0 comentários

    Ver todos os comentários

    Conseguiu tocar?

    12 Tocaram 1 Ainda não

    Grave um vídeo tocando Details In The Fabric e nos envie!

    00:00 / 00:00
    Outros vídeos desta música
    Repetir Qualidade Automático
    Outros vídeos desta música
    00:00 / 00:00
    Automático

    Cifra Club Pro

    Aproveite o Cifra Club com benefícios exclusivos e sem anúncios
    Cifra Club Pro
    Aproveite o Cifra Club com benefícios exclusivos e sem anúncios
    OK