Enviar cifraEntrar

Hallelujah

Jeff Buckley

Cifra: Principal
exibições 455.496
Tom: C

   Intro: C Am C Am
E|-----5-5--5------------5-5--5-----|-------------|
B|-5-8--------8-5-5--5-8--------8-5-|-6-5-3-3\1-1-|
G|----------------------------------|-------------|
D|----------------------------------|-------------|
A|----------------------------------|-------------|
E|----------------------------------|-------------|


     C              Am
E|--------0--------------0------------------------
B|------1---1----------1---1----------------------
G|----0--------------2----------------------------
A|-3----------2--0-----------2--------------------
D|------------------------------------------------
E|------------------------------------------------


     C              Am
E|--------0--------------0------------------------
B|------1---1----------1---1----------------------
G|----0--------------2-------2--------------------
A|-3----------2--0--------------------------------
D|------------------------------------------------
E|------------------------------------------------


     F11              G
E|--------1---------------3------------------------
B|------2---2-----------3---3----------------------
G|----1-------1-------0-------0--------------------
A|-------------------------------------------------
D|-------------------------------------------------
E|-1---------------3-------------------------------


     C                G
E|--------0---------------3-------------------------
B|------1---1-----------3---3-----------------------
G|----0-------0-------0-------0---------------------
A|--------------------------------------------------
D|--------------------------------------------------
E|-3---------------3--------------------------------


     C                F11
E|--------0-----------------------------------------
B|------1---1-----------2---------------------------
G|----0-------0-------1-----------------------------
A|--------------------------------------------------
D|--------------------------------------------------
E|-3---------------1--------------------------------


     G                Am
E|------------------------0-------------------------
B|------3---------------1---1-----------------------
G|----0---------------2-------2---------------------
A|--------------------------------------------------
D|-----------------0--------------------------------
E|-3------------------------------------------------


     F11              G
E|--------1---------------3------------------------
B|------2---2-----------3---3----------------------
G|----1-------1-------0-------0--------------------
A|-------------------------------------------------
D|-------------------------------------------------
E|-1---------------3-------------------------------


     Em11             Am
E|--------0---------------0------------------------
B|------0---0-----------1---1----------------------
G|----0-------0-------2-------2--------------------
A|-------------------------------------------------
D|-------------------------------------------------
E|-1---------------0------------0------------------


     F11
E|--------1---------------1------------------------
B|------2---2-----------2---2----------------------
G|----1-------1-------1-------1--------------------
A|-------------------------------------------------
D|-------------------------------------------------
E|-1---------------1-------------------------------


     Am                Am
E|--------1----------------0------------------------
B|------1---1------------1---1----------------------
G|----2-------2--------2-------2--------------------
A|--------------------------------------------------
D|-0----------------0-------------------------------
E|--------------------------------------------------


     F11              C
E|--------1---------------0-------------------------
B|------2---2-----------1---2-----------------------
G|----1-------1-------0-------1---------------------
A|-----------------2------------3-2-----------------
D|--------------------------------------------------
E|-1------------------------------------------------


     G
E|---------3-----------------------------------------
B|-------3---3---------------------------------------
G|-----0-------0-------------------------------------
A|--0------------------------------------------------
D|---------------------------------------------------
E|---------------------------------------------------



  C                 Am
I heard there was a secret chord
     C                   Am
That David played and it pleased the lord
    F                G               C        G
But you don't really care for music, do you?
        C                  F           G
Well it goes like this the fourth, the fifth
    Am                 F
The minor fall and the major lift
    G               G#º         Am
The baffled king composing hallelujah

Refrão:
     F           Am          F           C11  G   C
Hallelujah, hallelujah, hallelujah, hallelu-u-u-u-jah ....

          C                        Am
Well your faith was strong but you needed proof
    C               Am
You saw her bathing on the roof
    F              G             C            G
Her beauty and the moonlight overthrew you
C                   F       G
She tied you to her kitchen chair
    Am                        F
She broke your throne and she cut your hair
    G                  G#º          Am
And from your lips she drew the hallelujah

     F           Am          F           C11  G   C
Hallelujah, hallelujah, hallelujah, hallelu-u-u-u-jah ....

C              Am
Baby I've been here before
     C                       Am
I've seen this room and I've walked this floor
  F             G             C          G
I used to live alone before I knew you
C                          F      G
I've seen your flag on the marble arch
    Am             F
But love is not a victory march
       G                G#º        Am
It's a cold and it's a broken hallelujah

     F           Am          F           C11  G   C
Hallelujah, hallelujah, hallelujah, hallelu-u-u-u-jah ....

     C                         Am
Well there was a time when you let me know
       C            Am
What's really going on below
    F             G               C        G
But now you never show that to me do you
      C             F        G
But remember when I moved in you
        Am            F
And the holy dove was moving too
      G             G#º          Am
And every breath we drew was hallelujah

      C               Am
Well, maybe there's a god above
    C             Am
But all I've ever learned from love
    F                G           C          G
Was how to shoot somebody who outdrew you
     C                  F       G
It's not a cry that you hear at night
     Am                 F
It's not somebody who's seen the light
        G              G#º          Am
It's a cold and it's a broken hallelujah

     F           Am          F           C11  G   C
Hallelujah, hallelujah, hallelujah, hallelu-u-u-u-jah ....
  • 1
  • 2
  • 3
  • 4
  • 5
  • 6
  • 7
  • 8
  • 9
  • 10
  • 11
  • 12
    Acordes para:

      0 comentários

        mostrar mais comentários

        Conseguiu tocar?

        64tocaram0ainda não

        Grave um vídeo tocando Hallelujah e mande pra gente!

        00:00 / 00:00
        outros vídeos desta música
        repetirqualidadeautomática
        • automática
        Outro vídeos desta música
          00:00 / 00:00
          automática
          • automática
          Acordes para:violão e guitarra
          dificuldadeexibiçõescontribuições
          1 versão de Tab de gaitaexibiçõescontribuições
          3 versões de Guitar Proformatodownloadscontribuição
          1 versão de Partiturasformatodownloadscontribuição
          fecharplay/pause subir/descer velocidade
            acordes
            fechar
            OK
            Feedback