Cifra Club

I Am What I Am

Joe Jonas

Cifra: Principal (violão e guitarra)
tom: Bbm
Verso 1:
" i am what i am"...
E|---------------------------------------------------------------|
B|---------------------------------------------------------------|
G|---88---1111----66---55---444-----3333----44444444-----66666---|   (2x)
D|---88---1111----66---55---444-----3333----44444444-----66666---|
A|---66----99-----44---33---222-----1111----22222222-----44444---|
E|---------------------------------------------------------------|

Refrão:
"and i know"...
E|-------------------|
B|-------------------|
G|----4--------6-----|   (3x)
D|----4---4----6-----|
A|----2---4----4-----|
E|--------2----------|

E|--------------------------------------------------------|
B|--------------------------------------------------------|
G|-----------------------------------------888--666-------|   (2x)
D|----4--6--8--9--4--6--8--9--4--6--8--9---888--666-------|
A|----4--6--8--9--4--6--8--9--4--6--8--9---666--444-------|
E|----2--4--6--7--2--4--6--7--2--4--6--7------------------|

Verso 2:
"i am what i am"...
E|-------------------------------------------------------------|
B|-------------------------------------------------------------|
G|---88---1111----66---55---444------3333---44444444----66666--|   (2x)
D|---88---1111----66---55---444------3333---44444444----66666--|
A|---66----99-----44---33---222------1111---22222222----44444--|
E|-------------------------------------------------------------|

Refrão:
"because i know"...
E|-------------------|
B|-------------------|
G|----4--------6-----|   (3x)
D|----4---4----6-----|
A|----2---4----4-----|
E|--------2----------|

E|--------------------------------------------------------|
B|--------------------------------------------------------|
G|-----------------------------------------88--6666-------|   (2x)
D|----4--6--8--9--4--6--8--9--4--6--8--9---88--6666-------|
A|----4--6--8--9--4--6--8--9--4--6--8--9---66--4444-------|
E|----2--4--6--7--2--4--6--7--2--4--6--7------------------|

Ponte:
"o can't you see"
E|---------------------------------------------------------|
B|---------------------------------------------------------|
G|--4---------4-----8--4----4-------6---4---4---4---4---4--|
D|--4----4----4-----8--4----4---4---6---4---4---4---4---4--|
A|--2----4----2-----6--6----2---4---4---2---2---2---2---2--|
E|-------2----------------------2--------------------------|

Solo:
E|---------------------------------------------------------------|
B|---------------------------------------------------------------|
G|---------------------------------------------------------------|
D|--8-6-4-8--8-6-4-8-8-66666666-4-6-4-44-6-4-44-66-44-66-88888---|
A|---------------------------------------------------------------|
E|---------------------------------------------------------------|

Verso 3:
"i am what i am"...
E|----------------------------------------------------------|
B|----------------------------------------------------------|
G|---88---1111---66---55---444---3333---44444444----66666---|
D|---88---1111---66---55---444---3333---44444444----66666---|
A|---66----99----44---33---222---1111---22222222----44444---|
E|----------------------------------------------------------|

E|----------------|
B|----------------|
G|----4--------6--|   (3x)
D|----4---4----6--|
A|----2---4----4--|
E|--------2-------|

E|--------------------------------------------------------|     |----|
B|--------------------------------------------------------|     |----|
G|-----------------------------------------88--6666-------|     |----|
D|----4--6--8--9--4--6--8--9--4--6--8--9---88--6666-------|(4x) |-4--|
A|----4--6--8--9--4--6--8--9--4--6--8--9---66--4444-------|     |-4--|
E|----2--4--6--7--2--4--6--7--2--4--6--7------------------|     |-2--|
Compositor não encontrado.
Colaboração e revisão:
  • alice correa
229 exibições
    • ½ Tom
    • Am
    • Bbm
    • Bm
    • Cm
    • C#m
    • Dm
    • Ebm
    • Em
    • Fm
    • F#m
    • Gm
    • G#m
  • Adicionar à lista

    0 comentários

    Ver todos os comentários

    Conseguiu tocar?

    0 Tocaram 0 Ainda não

    Grave um vídeo tocando I Am What I Am e nos envie!

    00:00 / 00:00
    Outros vídeos desta música
    Repetir Qualidade Automático
    Outros vídeos desta música
    00:00 / 00:00
    Automático

    Cifra Club Pro

    Aproveite o Cifra Club com benefícios exclusivos e sem anúncios
    Cifra Club Pro
    Aproveite o Cifra Club com benefícios exclusivos e sem anúncios
    OK