Cifra Club

Jesus, Alegria dos homens

Johann Sebastian Bach

Cifra: Principal (violão e guitarra)
tom: G
E|-----------------0------3-2-3-------------|
B|--------0-3-1--1---3--3-------3-0------0--|
G|---0-2----------------------2------0-2----|
D|--------0------2------2-------------------|
A|------------------------------------------|
E|-3---------------------------------0------|

E|-----0------------------------------------|
B|-1-3----3-1-0----0-1----------------1-0---|
G|---------------2--------0-2------2------2-|
D|----------------------4------0-4----0-----|
A|-3------2------3------5-------------------|
E|-----------------------------2------------|

E|-----------------0------3-2--3------------|
B|-0------0-3-1--1---3--3--------3-0------0-|
G|---0-2------------------------------0-2---|
D|--------2--------------------2------0-----|
A|---------------3------2-------------------|
E|-3----------------------------------------|

E|---------------------------3--------------|
B|---3-1--0--------------0-3---3-0---0-3----|
G|----------2-0---0----0-----------0--------|
D|-2------------0---4--------------0--------|
A|-3------4---------------------------------|
E|---------------------3--------------------|

E|-3----------------------------------------|
B|-0----1--3-----3--1-----0-----------------|
G|-0----0--2--------0-----0-----------------|
D|------------------------------------------|
A|------------------------------------------|
E|-3-2--0--2--3--2--0--2--3-----------------|

E|------------------------------------------|
B|----------------1-0--1------------1-0-----|
G|-2-------2-0--2--------2-------2------2---|
D|---0-2-4------0------0---4-0-4----0-------|
A|------------------------------------------|
E|-0----------------------------------------|

E|------------------------------------------|
B|-0-----1--3-----0----0-1--0---------------|
G|-0-----0--0-----0--2---------2------------|
D|----------------2---------0--0------------|
A|----------2--2-----3----------------------|
E|-3--2--0----------------------------------|

E|-----------------0------------------------|
B|---0----0-3-1--1---3----------------------|
G|-0---2---------------0--------------------|
D|--------0------2-----0--------------------|
A|---------------------2--------------------|
E|-3-------------------3--------------------|




00:00 / 00:00
Outros vídeos desta música
Repetir
Outros vídeos desta música
Composição de Johann Sebastian Bach
Colaboração e revisão:
185.828 exibições
    • ½ Tom
    • A
    • Bb
    • B
    • C
    • Db
    • D
    • Eb
    • E
    • F
    • F#
    • G
    • Ab
  • Adicionar à lista

    0 comentários

    Ver todos os comentários

    Conseguiu tocar?

    39 Tocaram 16 Ainda não

    Grave um vídeo tocando Jesus, Alegria dos homens e nos envie!

    Toque também

    1. Imagem do artista Franz Schubert Ave Maria Franz Schubert
    2. Imagem do artista Ludwig Van Beethoven Fur Elise Ludwig Van Beethoven
    3. Imagem do artista Wolfgang Amadeus Mozart Marcha Turca(Fingerstyle) Wolfgang Amadeus Mozart
    4. Imagem do artista Johannes Brahms Brahms Lullabye Johannes Brahms

    Entre para oCifra Club PRO

    Tenha acesso a benefícios exclusivos no App e no Site

    • Chega de anúncios

    • Prioridade de compra em lançamentos

    • Mais recursos no app do Afinador

    • Atendimento Prioritário

    • Descontos nos produtos Cifra Club

    • Ajude a produzir mais conteúdo

    00:00 / 00:00

    Cifra Club Pro

    Aproveite o Cifra Club com benefícios exclusivos e sem anúncios
    Cifra Club Pro
    Aproveite o Cifra Club com benefícios exclusivos e sem anúncios
    OK