Cifra Club

Folsom Prison Blues

Johnny Cash

Cifra: Principal (violão e guitarra)
tom: F
[Intro] C  F

E|-------------------------------------|
B|-------------------------------------|
G|--------0---0---0--------------------|
D|------2---2---2----------------------|
A|3-3-3-------------3------------------|
E|---------------------3b-1------------|

F
I hear the train a comin'´

It's rollin' 'round the bend

And I ain't seen the sunshine since

I don't know when
      Bb     
I'm stuck at Folsom Prison
                        F
And time keeps draggin' on
           C                                     F
But that train keeps a rollin' on down to San Antone

F
When I was just a baby  my mama told me  "Son

Always be a good boy; don't ever play with guns."
      Bb                                    F
But I shot a man in Reno  just to watch him die
       C                                           F
When I hear that whistle blowin' I hang my head and cry

[Solo] F

E|-----8-10p8-11-8-------8-10p8-11-|
B|9/10--------------9/10-----------|
G|---------------------------------| (2x)
D|---------------------------------|
A|---------------------------------|
E|---------------------------------|

E|-8-------------------------------|
B|---10----------------------------|
G|------10/------------------------|
D|---------------------------------|
A|---------------------------------|
E|---------------------------------|

( Bb7  F  C  F )

F
I bet there's rich folk eatin'

In a fancy dining car

They're prob'ly drinkin'

Coffee and smokin' big cigars
      Bb                                       F
But I know I had it comin'  I know I can't be free
          C                                              F
But those people keep a movin'  and that's what tortures me

[Solo] F  Bb  F  C7  F

F
Well  if they freed me from this prison

If that railroad train was mine

I bet I'd move on a little farther down the line
 Bb     
Far from Folsom Prison  that's where
            F
I want to stay
        C                                         F
And I'd let that lonesome whistle blow my blues away
00:00 / 00:00
Outros vídeos desta música
Repetir
Outros vídeos desta música
Composição de Johnny Cash
233.839 exibições
    • ½ Tom
    • A
    • Bb
    • B
    • C
    • Db
    • D
    • Eb
    • E
    • F
    • F#
    • G
    • Ab
  • Adicionar à lista

    0 comentários

    Ver todos os comentários

    Conseguiu tocar?

    63 Tocaram 7 Ainda não

    Grave um vídeo tocando Folsom Prison Blues e nos envie!

    00:00 / 00:00

    Cifra Club Pro

    Aproveite o Cifra Club com benefícios exclusivos e sem anúncios
    Cifra Club Pro
    Aproveite o Cifra Club com benefícios exclusivos e sem anúncios
    OK