Cifra Club

I Won't Back Down

Johnny Cash

Cifra: Principal (violão e guitarra)
Selo Cifra Club: esta cifra foi revisada para atender aos critérios oficiais da nossa Equipe de Qualidade.
tom: A
[Intro] A  A5  D9

E|-----------------------------|-----------------------------|
B|---------------2---2--3------|---------------2---2--3------|
G|---------------2-2-2--2------|---------------2-2-2--2------|
D|---------------2-2-2---------|---------------2-2-2---------|
A|---------3~-0----------------|---------3~-0----------------|
E|----0--3---------------------|----0--3---------------------|

E|-----------------------------|-----------------------------|
B|---------------2-0-2-0-2/3---|---------------2-0-2-0-2/3---|
G|-----------------------------|-----------------------------|
D|-----------------------------|-----------------------------|
A|---------3~-0----------------|---------3~-0----------------|
E|----0--3---------------------|----0--3---------------------|

       F#m    E    A         F#m    E    A
Well I won't back down, no I won't back down
        F#m     E          D
You can stand me up at the gates of hell
      F#m    E    A
But I won't back down

        F#m  E   A                F#m   E   A
Gonna stand my ground, won't be turned around
         F#m        E           D
And I'll keep this world from draggin' me down
      F#m  E   A           F#m    E    A
Gonna stand my ground and I won't back down

  D   E   D                         E
Hey baby, there ain't no easy way out
  D   E       F#m  E    A          F#m    E    A
Hey, I will stand my ground and I won't back down

( A  A5  D9 )

        F#m    E     A       F#m   E      A
Well I know what's right, I got just one life
       F#m      E          D
In a world that keeps on pushin' me around
          F#m   E   A          F#m   E    A
But I'll stand my ground and I won't back down

  D   E   D                         E
Hey baby, there ain't no easy way out
  D   E       F#m  E    A          F#m    E    A
Hey, I will stand my ground and I won't back down
       F#m    E    A
No I won't back down
Outros vídeos desta música
223.324 exibições
    • ½ Tom
    • A
    • Bb
    • B
    • C
    • Db
    • D
    • Eb
    • E
    • F
    • F#
    • G
    • Ab
  • Adicionar à lista

Afinação da cifra

Afinador online

    0 comentários

    Ver todos os comentários

    Entre para o Cifra Club PRO

    Tenha acesso a benefícios exclusivos no App e no Site

    • Chega de anúncios

    • Mais recursos no app do Afinador

    • Atendimento Prioritário

    • Aumente seu limite de lista

    • Ajude a produzir mais conteúdo

    Cifra Club Pro

    Aproveite o Cifra Club com benefícios exclusivos e sem anúncios
    Cifra Club Pro
    Aproveite o Cifra Club com benefícios exclusivos e sem anúncios
    OK