Cifra Club

Aprenda

Investe Em Mim

Jonas Esticado

Cifra: Principal (violão e guitarra)
tom: G#m (forma dos acordes no tom de F#m) Capotraste na 2ª casa
[Intro] Em  C  G  D9
        Em  C  G  D9

E|------------------------------------------|
B|------------------------------------------|
G|---0-2h4-2/4~--/7-7-7-5-5-5-4p2-2/4-------|
D|-0----------------------------------------|
A|------------------------------------------|
E|------------------------------------------|

E|------------------------------------------|
B|------------------------------------------|
G|-4\2---2~---------------------------------|
D|-----5------------------------------------|
A|------------------------------------------|
E|------------------------------------------|

E|------------------------------------------|
B|------------------------------------------|
G|---0-2h4-2/4~--/7-7-7-5-5-5-4p2-2/4-------|
D|-0----------------------------------------|
A|------------------------------------------|
E|------------------------------------------|

E|------------------------------------------|
B|------------------------------------------|
G|-4\2---2~----0----------------------------|
D|-----5-----0---0-2~-----------------------|
A|------------------------------------------|
E|------------------------------------------|

[Primeira Parte]
           
           Em 
Sei que você não
C             G  D9
Ama mais ninguém
           Em  
E nem quer amar
    C                G  D9
Tá bom do jeito que tá

[Pré-Refrão]

Am                      G  
   Seu coração tá machucado demais
         D9
Não acredita no amor
Am                       G
   Eu só te peço, tenta mais uma vez 
          D9
Amor, me faça esse favor

[Refrão]

            Em 
Investe em mim
  C             G  
Aposta tudo em mim
           D9 
Que eu prometo 
            Em 
Te fazer feliz
           C 
Que eu prometo 
            G  D9
Te fazer feliz
            Em 
Investe em mim
  C             G  
Aposta tudo em mim
           D9 
Que eu prometo 
            Em 
Te fazer feliz
           C       
Que eu prometo te 
         G  D9
Fazer feliz

[Solo] Em  C  G  D9 
       Em  C  G  D9 

E|------------------------------------------|
B|------------------------------------------|
G|---0-2h4-2/4~--/7-7-7-5-5-5-4p2-2/4-------|
D|-0----------------------------------------|
A|------------------------------------------|
E|------------------------------------------|

E|------------------------------------------|
B|------------------------------------------|
G|-4\2---2~---------------------------------|
D|-----5------------------------------------|
A|------------------------------------------|
E|------------------------------------------|

E|------------------------------------------|
B|------------------------------------------|
G|---0-2h4-2/4-4\2p0--/7-7-7-5-5-5-4p2-2/4--|
D|-0----------------------------------------|
A|------------------------------------------|
E|------------------------------------------|

E|------------------------------------------|
B|------------------------------------------|
G|-4\2---2~------------5-4-2~---------------|
D|-----5---------0h2/5----------------------|
A|-----------0h2----------------------------|
E|------------------------------------------|

[Pré-Refrão]

Am                      G  
   Seu coração tá machucado demais
         D9
Não acredita no amor
Am                       G
   Eu só te peço, tenta mais uma vez
          D9
Amor, me faça esse favor

[Refrão]

            Em 
Investe em mim
  C             G  
Aposta tudo em mim
           D9 
Que eu prometo 
            Em 
Te fazer feliz
           C 
Que eu prometo 
            G  D9
Te fazer feliz
            Em 
Investe em mim
  C             G  
Aposta tudo em mim
           D9 
Que eu prometo 
            Em 
Te fazer feliz
           C       
Que eu prometo te 
         G  D9
Fazer feliz

[Ponte]

Am               G
   De tanto apanhar 
                Em 
Seu coração pedrou 
                  D9
Não ama mais ninguém
Am            G      
Amolece esse peito meu bem
 D9    
Dá uma chance pra mim

[Refrão]

            Em 
Investe em mim
  C             G  
Aposta tudo em mim
           D9 
Que eu prometo 
            Em 
Te fazer feliz
           C 
Que eu prometo 
            G  D9
Te fazer feliz
            Em 
Investe em mim
  C             G  
Aposta tudo em mim
           D9 
Que eu prometo 
            Em 
Te fazer feliz
           C       
Que eu prometo te 
         G  D9
Fazer feliz

[Final] Em  C  G  D9
        Em  C  G  D9
        Em  C  G  D9
        Em  C  G  D9  Em 

E|------------------------------------------|
B|------------------------------------------|
G|---0-2h4-2/4~--/7-7-7-5-5-5-4p2-2/4-------|
D|-0----------------------------------------|
A|------------------------------------------|
E|------------------------------------------|

E|------------------------------------------|
B|------------------------------------------|
G|-4\2---2~---------------------------------|
D|-----5------------------------------------|
A|------------------------------------------|
E|------------------------------------------|

E|------------------------------------------|
B|------------------------------------------|
G|---0-2h4-2/4~--/7-7-7-5-5-5-4p2-2/4-------|
D|-0----------------------------------------|
A|------------------------------------------|
E|------------------------------------------|

E|------------------------------------------|
B|------------------------------------------|
G|-4\2---2~---------------------------------|
D|-----5------------------------------------|
A|------------------------------------------|
E|------------------------------------------|

E|------------------------------------------|
B|------------------------------------------|
G|---0-2h4-2/4~--/7-7-7-5-5-5-4p2-2/4-------|
D|-0----------------------------------------|
A|------------------------------------------|
E|------------------------------------------|

E|------------------------------------------|
B|------------------------------------------|
G|-4\2---2~---------------------------------|
D|-----5------------------------------------|
A|------------------------------------------|
E|------------------------------------------|

E|------------------------------------------|
B|------------------------------------------|
G|---0-2h4-2/4-4\2p0--/7-7-7-5-5-5-4p2-2/4--|
D|-0----------------------------------------|
A|------------------------------------------|
E|------------------------------------------|

E|------------------------------------------|
B|------------------------------------------|
G|-4\2---2~----0-2-5-2----------------------|
D|-----5-----2------------------------------|
A|------------------------------------------|
E|------------------------------------------|
Composição de Bruno Caliman / Dill Meireles / Wesley Santos
Colaboração e revisão:
140.304 exibições
    • ½ Tom
    • Am
    • Bbm
    • Bm
    • Cm
    • C#m
    • Dm
    • Ebm
    • Em
    • Fm
    • F#m
    • Gm
    • G#m
  • Adicionar à lista

    0 comentários

    Ver todos os comentários

    Conseguiu tocar?

    14 Tocaram 3 Ainda não

    Grave um vídeo tocando Investe Em Mim e nos envie!

    00:00 / 00:00
    Outros vídeos desta música
    Repetir Qualidade Automático
    Outros vídeos desta música
    00:00 / 00:00
    Automático

    Cifra Club Pro

    Aproveite o Cifra Club com benefícios exclusivos e sem anúncios
    Cifra Club Pro
    Aproveite o Cifra Club com benefícios exclusivos e sem anúncios
    OK